Sick Of It All - Pay The Price Chords & Tabs

 

Pay The Price Chords & Tabs

Sick Of It All Chords & Tabs

Version: 1 Type: Bass Tab 0 ratings
1 star 2 stars 3 stars 4 stars 5 stars
comments

Pay The Price Bass Tab

------------------------------------------------------------------------------- 
                        PAY THE PRICE - Sick of it All 
------------------------------------------------------------------------------- 

By: Punk Rock Bob ( Mickey_Mouse_Is_Dead@punkhardcore.net ) 

INTRO (play at an increasing tempo) 
G|--------------------------------------------------------------------------| 
D|--------------------------------------------------------------------------| 
A|--7777-8--8--8--8--7777-10-10-10-10-7777-8--8--8--8--7777-5555------------| 
E|--------------------------------------------------------------------------| 
[ Tab from: http://www.guitartabs.cc/tabs/s/sick_of_it_all/pay_the_price_btab.html ]
INTRO part2 
G|---------------------------------------------------------------------------| 
D|---------------------------------------------------------------------------| 
A|--7-777777-7-777777-7-777777--6--------------------------------------------| 
E|---------------------------------------------------------------------------| 

VERSE 
G|---------------------------------------------------------------------------| 
D|---------------------------------------------------------------------------| 
A|-------7777------5555------------------------------------------------------| 
E|--7777------5555-----------------------------------------------------------| 

CHORUS 
G|---------------------------------------------------------------------------| 
D|---------------------------------------------------------------------------| 
A|--------------------5-4----------------------------------------------------| 
E|--4-555-4-555-4-555--------------------------------------------------------| 

-------------------------------------------------------------------------------
Comments