Sick Of It All - Nice Chords & Tabs

 

Nice Chords & Tabs

Sick Of It All Chords & Tabs

Version: 1 Type: Tab 0 ratings
1 star 2 stars 3 stars 4 stars 5 stars
comments

Nice Tab

------------------------------------------------------------------------------- 
                         NICE - Sick Of It All 
------------------------------------------------------------------------------- 

By:subempir17@aol.com (joe) 

-intro- (repete 4x's) 
e|--------------------------------------------------------------------| 
B|-----(hit harmonics on low E)---------------------------------------| 
G|--------------------------------------------------------------------| 
D|--------------------------------------------------------------------| 
A|--------------------------------------------------------------------| 
E|-5xxx4xxx5xxx4xxxxxx------------------------------------------------| 

-verse- (repete 2x's) 
e|--------------------------------------------------------------------| 
B|--------------------------------------------------------------------| 
G|--------------------------------------------------------------------| 
D|-222-44-666--222--44-666--------------------------------------------| 
A|-222-22-666--222--22-646--------------------------------------------| 
E|-000-22-444--000--22-444--------------------------------------------| 
please note: this ^ is note an error you play that chord diff. the 
second time. 
[ Tab from: http://www.guitartabs.cc/tabs/s/sick_of_it_all/nice_tab.html ]
-verse part 2- (play once) 
e|--------------------------------------------------------------------| 
B|--------------------------------------------------------------------| 
G|---------------------------------(feel my decay)--------------------| 
D|-666-999-6666--666-999-6666---9-8-6-6666-9-8-6-6666-----------------| 
A|-666-999-6666--666-999-6666---7-6-4-6666-7-6-4-6666-----------------| 
E|-444-777-4444--444-777-4444---7-6-4-4444-7-6-4-4444-----------------| 

-bridge- 
e|--------------------------------------------------------------------| 
B|--------------------------------------------------------------------| 
G|--------------------------------------------------------------------| 
D|-8888-4444-8888-4444-8888-4444-6666-11-11-11-11---------------------| 
A|-6666-2222-6666-2222-6666-2222-4444-9--9--9--9----------------------| 
E|-6666-2222-6666-2222-6666-2222-4444-9--9--9--9----------------------| 

-chorus- (repete 8x's) 
e|--------------------------------------------------------------------| 
B|--------------------------------------------------------------------| 
G|------------(nice!)-------------------------------------------------| 
D|-666-888-999-999----------------------------------------------------| 
A|-666-666-777-999----------------------------------------------------| 
E|-444-666-777-777----------------------------------------------------| 

-break- (8x's) 
e|--------------------------------------------------------------------| 
B|--------------------------------------------------------------------| 
G|--------------------------------------------------------------------| 
D|-777-666-777-666666-777-666-777-666666------------------------------| 
A|-777-666-777-666666-777-666-777-666666------------------------------| 
E|-555-444-555-444444-555-444-555-444444------------------------------| 

song structure 

intro 
verse 
verse part 2 
bridge 
verse 
verse part 2 
bridge 
intro (double time) 
break 
verse 
verse part 2 (minus feel my decay part) 
bridge 
chorus 

-------------------------------------------------------------------------------
Comments