Sick Of Change - Life Stands Still Chords & Tabs

 

Life Stands Still Chords & Tabs

Sick Of Change Chords & Tabs

Version: 1 Type: Tab 0 ratings
1 star 2 stars 3 stars 4 stars 5 stars
comments

Life Stands Still Tab

------------------------------------------------------------------------------- 
                  LIFE STANDS STILL - Sick of Change 
------------------------------------------------------------------------------- 

By:JJpunkr 

Intro 
First Part x2 
e|---------------------------------------------------------------------------| 
B|-4----2----0----2----00--5----4----7----5----4h5p4-------------------------| 
G|---11---11---11---11-------44---44---44---44-------4-----------------------| 
D|---------------------------------------------------------------------------| 
A|---------------------------------------------------------------------------| 
E|---------------------------------------------------------------------------| 

No Pause Second time 
e|-----------------------------------------------------|---------------------| 
B|-----------------------------------------------------|---------------------| 
G|-----3----4----3--3h4p3--------2----4----4----4----4-|---------------------| 
D|-444---44---44----------4--222---22---22---22---22---|-22222222------------| 
A|-----------------------------------------------------|-22222222------------| 
E|-----------------------------------------------------|-00000000------------| 

Second Part 
e|-----------------------------------------|---------------------------------| 
B|-----------------------------------------|--4--2--0--4--2--0--4--5---------| 
G|-----------44444444----------------------|---------------------------------| 
D|-66666666--44444444--44444444--22222222--|---------------------------------| 
A|-66666666--22222222--44444444--22222222--|---------------------------------| 
E|-44444444------------22222222--00000000--|---------------------------------| 

Third Part (I didn't tab out the rythm) 
e|---------------------------------------------------------------------------| 
B|---------------------------------------------------------------------------| 
G|----4--------------4/5/6/4-----------4-----4-----------------9--8--6-------| 
D|-6--4--2--4--2--4--4/5/6/4--4--6--8--4--6--4--2--4--2--6--2--9--8--6-------| 
A|-6--2--2--4--2--4--2/3/4/2--4--6--8--2--6--2--2--4--2--6--2--7--6--4-------| 
E|-4-----0--2--0--2-----------2--4--6-----4-----0--2--0--4--0----------------| 

Fourth Part x2 
e|---------------------------------------------------------------------------| 
B|---------------------------------------------------------------------------| 
G|-4----4----4----4----4-----------------------------------------------------| 
D|-4----4----4----4----4----6----6----6----6---2---2---2---2---4---4---4---4-| 
A|-2--xx2--xx2--xx2--xx2----6----6----6----6---2---2---2---2---4---4---4---4-| 
E|------------------------xx4--xx4--xx4--xx4-xx0-xx0-xx0-xx0-xx2-xx2-xx2-xx2-| 
[ Tab from: http://www.guitartabs.cc/tabs/s/sick_of_change/life_stands_still_tab.html ]
1st Verse 
e|---------------------------------------------------------------------------| 
B|---------------------------------------------------------------------------| 
G|--4---------------------------------4----4---------------------------------| 
D|--4-----------------------------------4--4---------------------------------| 
A|--2---------------(feedback)------2------2--(pickscrape)-------------------| 
E|---------------------------------------------------------------------------| 

Chorus x2 
e|---------------------------------------------------------------------------| 
B|---------------------------------------------------------------------------| 
G|-----------444444444-------------------------------------------------------| 
D|-666666666-444444444-444444444-222222222-----------------------------------| 
A|-666666666-222222222-444444444-222222222-----------------------------------| 
E|-444444444-----------222222222-000000000-----------------------------------| 

Slow Part 
e|---------------------------------------------------------------------------| 
B|---------------------------------------------------------------------------| 
G|---4---4----4------4------4---4----4--------4------------------------------| 
D|-----4--------4------4------4--------4----4---4----------------------------| 
A|-2--------2------2------2--------2------2----------------------------------| 
E|---------------------------------------------------------------------------| 

Second Verse 
e|---------------------------------------------------------------------------| 
B|---------------------------------------------------------------------------| 
G|-44444444--66666666----------------------44444444--66666666----------------| 
D|-44444444--66666666--66666666--22224444--44444444--66666666-66666666--22-44| 
A|-22222222--44444444--66666666--22224444--22222222--44444444-66666666--22-44| 
E|---------------------44444444--00002222---------------------44444444--00-22| 

Second Chorus x2 
e|---------------------------------------------------------------------------| 
B|---------------------------------------------------------------------------| 
G|---------------------44444444--66666666------------------------------------| 
D|-66666666--22222222--44444444--66666666------------------------------------| 
A|-66666666--22222222--22222222--44444444------------------------------------| 
E|-44444444--00000000--------------------------------------------------------| 

Bridge x3 Last Time 
e|------------------------------------------|--------------------------------| 
B|-4---5---7--------------------------------|-7---5---4----------------------| 
G|---4---4---4------------------------------|---4---4---4--------------------| 
D|------------------------------------------|--------------------------------| 
A|------------------------------------------|--------------------------------| 
E|------------------------------------------|--------------------------------| 

Last Chorus x2 
e|---------------------------------------------------------------------------| 
B|---------------------------------------------------------------------------| 
G|-44444444------------------------------------------------------------------| 
D|-44444444--66666666--22222222--44444444------------------------------------| 
A|-22222222--66666666--22222222--44444444------------------------------------| 
E|-----------44444444--00000000--22222222------------------------------------| 

Thats it. email me with any questions or comments @ jjpunkr@aol.com 
God Bless 
==============================================================================
Comments