Sick Of Change - Endless Thoughts Chords & Tabs

 

Endless Thoughts Chords & Tabs

Sick Of Change Chords & Tabs

Version: 1 Type: Bass Tab 0 ratings
1 star 2 stars 3 stars 4 stars 5 stars
comments

Endless Thoughts Bass Tab

------------------------------------------------------------------------------- 
                 ENDLESS THOUGHTS OF YOU - Sick Of Change
------------------------------------------------------------------------------- 

By:Sébastien Prost(onesided14@hotmail.com) 

> = Strum ~ = Let Ring 

Intro X2 Play That Part 2 Times 
G|-------------|------------------------------------------| 
D|-------------|------------------------------------------| 
A|--0~---------|--000-----------------000-----------------| 
E|-----0~--1~--|------000-111-333-1>------000-111-333-1>--| 

Chorus X2 
G|---------------------------| 
D|---------------------------| 
A|---3>--------3>------------| 
E|--------1>--------1>---3>--| 
[ Tab from: http://www.guitartabs.cc/tabs/s/sick_of_change/endless_thoughts_btab.html ]
Verse 
G|----------------------------------------------------| 
D|----------------------------------------------------| 
A|-------------3>------------------3>-----------------| 
E|---1~---3~--------1>---1~---3~--------1>---1~---3~--| 

Play Chorus 
Play Verse 
Play Chorus 

Bridge X2 X5 Last Time Of The Bridge 
G|------------|----------------|------------------|--------------------------| 
D|------------|----------------|------------------|--------------------------| 
A|---0--------|--0>------------|--0>--------------|--0>----------------------| 
E|------0--1--|------0>--1>----|------0>--1>--3>--|------0>--1>-111----------| 

Play Chorus 

Outro 
G|-----------------------------| 
D|-----------------------------| 
A|-----------------------------| 
E|--111-1-111-1-111-1-11---1~--| 

-------------------------------------------------------------------------------
Comments