Sicc Pu - Welcome To Insanity Chords & Tabs

 

Welcome To Insanity Chords & Tabs

Sicc Pu Chords & Tabs

Version: 1 Type: Bass Tab 0 ratings
1 star 2 stars 3 stars 4 stars 5 stars
comments

Welcome To Insanity Bass Tab

---0-3-5-----x|--0-3-5-----|---0-3-5----|---0-3-5------
-0-------3-0-x|0-------3-5b|-0-------3-0|-0-------5-4-3
--------------|------------|------------|--------------
--------------|------------|------------|--------------
on the bend, hold for 4 count...repeat x2   

[ Tab from: http://www.guitartabs.cc/tabs/s/sicc_pu/welcome_to_insanity_btab.html ]
-----0-0--------|----0-0--------|----------------
-0-0-----5-5-3-3|0-0-----5-5-3-3||5-5-5-5-3-3-3-3
----------------|---------------|----------------
----------------|---------------|----------------
VERSE X4     


---------5-5-5-5---------3-3-3-3
-5-5-5-5---------3-3-3-3--------
--------------------------------
--------------------------------
all notes X 8                (REPEAT CHORUS X4)
Comments