Siakol - Sige Na Chords & Tabs

 

Sige Na Chords & Tabs

Siakol Chords & Tabs

Version: 2 Type: Bass Tab 0 ratings
1 star 2 stars 3 stars 4 stars 5 stars
comments

Sige Na Bass Tab

   
Sige Na, Tuloy Pa
Siakol
Sa Pag-ikot ng Mundo
Bass tab

Intro: 2x
G-----------------------|
D-----------------------|
A------4-7--------4-7---|
E-5--5-------5--5-------|

G-----------------------|
D-----------------------|
A--------4----------4---|
E-2--0-5-----2--0-5-----|

G-----------------------|
D------4-7--------6-9---|
A-5--5-------7--7-------|
E-----------------------|

G-------------------------------|
D-------------------------------|
A---------------4-5-4-0---------|
E-5-5-5-5-5-5-5----------0-0-0--|

Verse 1 & 2:
G-----------------------|
D-----------------------|
A------4-7--------4-7---|
E-5--5-------5--5-------|

G-----------------------|
D-----------------------|
A--------4----------4---|
E-2--0-5-----2--0-5-----|

G-----------------------|
D------4-7--------6-9---|
A-5--5-------7--7-------|
E-----------------------|

G-------------------------------|
D-------------------------------|
A---------------4-5-4-0---------|
E-5-5-5-5-5-5-5----------0-0-0--|

Chorus: 2x
G-----------------------------------|
D-----------------------------------|
A-----------------------------------|
E-3/5-5-5-5-5-5-5--3/5-5-5-5-5-5-5--|

G-----------------------|
D-4--4-------4--4-------|
A------4-6--------4-6---|
E-----------------------|
G-----------------------|
D------4-7--------6-9---|
A-5--5-------7--7-------|
E-----------------------|
[ Tab from: http://www.guitartabs.cc/tabs/s/siakol/sige_na_btab_ver_2.html ]
G-------------------------------|
D-------------------------------|
A---------------4-5-4-0---------|
E-5-5-5-5-5-5-5----------0-0-0--|

Verse 3 & 4:
G-----------------------|
D-----------------------|
A------4-7--------4-7---|
E-5--5-------5--5-------|

G-----------------------|
D-----------------------|
A--------4----------4---|
E-2--0-5-----2--0-5-----|

G-----------------------|
D------4-7--------6-9---|
A-5--5-------7--7-------|
E-----------------------|

G-------------------------------|
D-------------------------------|
A---------------4-5-4-0---------|
E-5-5-5-5-5-5-5----------0-0-0--|

(Repeat Chorus)

Adlib: 2x
G-----------------------|
D-----------------------|
A------4-7--------4-7---|
E-5--5-------5--5-------|

G-----------------------|
D-----------------------|
A--------4----------4---|
E-2--0-5-----2--0-5-----|

G-----------------------|
D------4-7--------6-9---|
A-5--5-------7--7-------|
E-----------------------|

G-------------------------------|
D-------------------------------|
A---------------4-5-4-0---------|
E-5-5-5-5-5-5-5----------0-0-0--|

(Repeat Chorus 2x)

-----------------------------------------------------------------------
Ako po yung gumawa ng unang version sa bass tab ng Sige Na. Medyo may kulang yun. Eto 
na to.. Tama na yata to.. Pakinggan niyo nalang yung timing nito..
PAKI-RATE NALANG PO..

Kumusta nalang pala sa mga kabanda ko dito sa Tacloban, ang "FIGURE05" (u know hu u are..)

Visit our website: www.freewebs.com/figure05band
For comments & suggestions: cicatrix17@yahoo.com

[ C!C@tr!x ]
Christopher Co (FIGURE05)
V&G Subd., Tacloban City
Comments