Siakol - Sige Na Chords & Tabs

 

Sige Na Chords & Tabs

Siakol Chords & Tabs

Version: 1 Type: Bass Tab 0 ratings
1 star 2 stars 3 stars 4 stars 5 stars
comments

Sige Na Bass Tab

   
Sige Na
Siakol
Bass tab

Intro:
Verses:
G-----------------------|
D-----------------------|
A------4-7--------4-7---|
E-5--5-------5--5-------|

G-----------------------|
D-----------------------|
A--------4----------4---|
E-2--0-5-----2--0-5-----|

G-----------------------|
D------4-7--------6-9---|
A-5--5-------7--7-------|
E-----------------------|

G---------------------------------|
D---------------------------------|
A-----------------4-5-4-0---------|
E-5--5-5-5-5-5-5-----------0-0-0--|
[ Tab from: http://www.guitartabs.cc/tabs/s/siakol/sige_na_btab.html ]
Chorus:
G-----------------------------------|
D-----------------------------------|
A-----------------------------------|
E-3/5-5-5-5-5-5-5--3/5-5-5-5-5-5-5--|

G-----------------------|
D-4--4-------4--4-------|
A------4-6--------4-6---|
E-----------------------|

G-----------------------|
D------4-7--------6-9---|
A-5--5-------7--7-------|
E-----------------------|

G---------------------------------|
D---------------------------------|
A-----------------4-5-4-0---------|
E-5--5-5-5-5-5-5-----------0-0-0--|

Ito lang yung alam ko. Di ko pa naririnig ito sa radyo pero nakarinig na
ako na may tumugtog nito. Pwede na man ito. PAKI-RATE NA LANG PO....

[ C!C@tr!x ]
C.R.C.Co. - T.C.
Comments