Siakol - Pantasya Chords & Tabs

 

Pantasya Chords & Tabs

Siakol Chords & Tabs

Version: 1 Type: Bass Tab 0 ratings
1 star 2 stars 3 stars 4 stars 5 stars
comments

Pantasya Bass Tab

song:Pantasya
Album:Pantasya
Tab by: alay heto na naman ako
any comments e-mail: alay_slash@yahoo.com

Intro:
G|------------------------------------------|
D|------------------------------------------|(15x)
A|-333-0-3-5--0-8-8-7-5-3-------------------|
E|----3------3------------------------------|
ito yun last bet patungong chorus iba na
G|--------------------------------------------|
D|--------------------------------------------|
A|-333-0-3-5--0-8-8-7-5/----------------------|
E|----3------3--------------------------------|
[ Tab from: http://www.guitartabs.cc/tabs/s/siakol/pantasya_btab.html ]
chorus:               (3x) balikin
G|---------------------------------------------------------------------|
D|---5--5-7-5---5-------------5---5-7-5---5-------------5---5-7-5---5--|
A|-7--7-------7-----------7-7---7-------7-----------7-7---7-------7----|
E|----------------5-7-5-7-------------------5-7-5-7--------------------|

G|----------------------------------------------|
D|-------------5---5-7-5---5--------------------|
A|---------7-7---7-------7----------------------|
E|-5-7-5-7--------------------------------------|

G|------------------------------------------|
D|------------------------------------------|
A|---------5-5--7-5-7-5---------------------|
E|-5-7-5-7--------------33333333--5-3-5-3---|then back on the top

"yan lang ang dali lang yan paki rate nyi na lang po
para sa lahat ito yung may gustong gumamit ng bass!"
Comments