Siakol - Lakas Tama Chords & Tabs

 

Lakas Tama Chords & Tabs

Siakol Chords & Tabs

Version: 2 Type: Tab 0 ratings
1 star 2 stars 3 stars 4 stars 5 stars
comments

Lakas Tama Tab

song: lakas tama
band: siakol
tabbed by jeffrey h.(y2jc_28@yahoo.com)& glen b.(ycool2cool@yahoo.com)
              Wasupman! ito yung lakas tama ng siakol hindi pa to buo.
intro lang at chords. sa susunod na lang ang lead.
intro:(effect: distortion)
e----------------------------------------------------------------|
b----------------------------------------------------------------|
g---------------------------------------------------------repeat-|4x
d--------9-------------------10----------------9-----------------|
a------7---7-7h8-7--7------10-----------10----9--------9---------|
e----0---------------7---8------8-8h9-8---8--7--7-7h8-7--7-------|

bass intro:(start when 3rd time repeating intro)
e----------------------------------------|
b----------------------------------------|
g---9--9h11-9----------------------------|
d------------10--10-9-7-9--9-7----repeat-|2x
a-----------------------------10-7-------|
e----------------------------------------|

powerchords:(effect: distortion)
e--------------------------|
b--------------------------|
g--------------------------|
d---9(8x)-------------9----|(8x)repeat for the whole song
a---7---10(8x)-9(8x)--7----|
e--------8-----7-----------|

yun lang.
[ Tab from: http://www.guitartabs.cc/tabs/s/siakol/lakas_tama_tab_ver_2.html ]
Comments