Siakol - Kupal A Mikel Amputah Lugaw Ka Putcha Chords & Tabs

 

Kupal A Mikel Amputah Lugaw Ka Putcha Chords & Tabs

Siakol Chords & Tabs

Version: 1 Type: Bass Tab 0 ratings
1 star 2 stars 3 stars 4 stars 5 stars
comments

Kupal A Mikel Amputah Lugaw Ka Putcha Bass Tab

   
G---------|
D---------|
A------7--|
E-3-5-7-7-|

Main Riff

G---------|---------|---------|
D---------|---------|---------|
A------7--|------7--|------7--|
E-3-5-7-7-|-3-5-7-7-|-3-5-7-7-|

Chorus
[ Tab from: http://www.guitartabs.cc/tabs/s/siakol/kupal_a_mikel_amputah_lugaw_ka_putcha_btab.html ]
G---------|---------|---------|
D---------|---------|---------|
A------7--|------7--|------7--|
E-3-5-7-7-|-3-5-7-7-|-3-5-7-7-|

But in the verse  the Bass kicks in half way through right after the sitar
 
Verse

G---------|---------|---------|
D---------|---------|---------|
A------7--|------7--|------7--|
E-3-5-7-7-|-3-5-7-7-|-3-5-7-7-)

hirap na hirap akong kapain ito.. pero dahil may talent ako.... nagawa ko!  
ulitulitin nyo lng mga pre
Comments