Siakol - Hindi Mo Ba Alam Chords & Tabs

 

Hindi Mo Ba Alam Chords & Tabs

Siakol Chords & Tabs

Version: 3 Type: Tab 0 ratings
1 star 2 stars 3 stars 4 stars 5 stars
comments

Hindi Mo Ba Alam Tab

   
Hindi Mo ba alam? by: Siakol www.ultimate-guitar.com
Tab by: alay ponchica
if any comment e-mail:alay_slash@yahoo.com

Chords sa solo:
G - C 3x - D, Em,Bm,(2x),C,Am,D,

Solo:

E|------------------8-7--7--10--8-7--------------------|
B|---------------/8----8-------------10-8h-10----------|
G|----------5-7~---------------------------------------|
D|------5-7--------------------------------------------|
A|--5-7------------------------------------------------|
E|-----------------------------------------------------|

[ Tab from: http://www.guitartabs.cc/tabs/s/siakol/hindi_mo_ba_alam_tab_ver_3.html ]
E|-------------------7p8------10--7p8------10----------|
B|--10-8-----------------8----7-------8----7-----------|
G|-------9-7---------------9--7---------9--7-----------|
D|-----------9-7---------------------------------------|
A|---------------9-7-----------------------------------|
E|-----------------------------------------------------|


E|---------------------------------------------------------------------------|
B|-----7-8--10/12-10-8-10-8-7-8--8-7-----------------------------------------|
G|-7-9--------------------------------9-7------------------------------------|
D|----------------------------------------10-9-7-----------------------------|
A|----------------------------------------------10-12-10-9-10-9-7-9-7-5-7-3~-|
E|---------------------------------------------------------------------------|

"Itong tab na ito ialay ko sa iinyong lahat sa mga barkada ko sa davao muzta na kau"
Comments