Siakol - Hindi Mo Ba Alam Chords & Tabs

 

Hindi Mo Ba Alam Chords & Tabs

Siakol Chords & Tabs

Version: 2 Type: Tab 0 ratings
1 star 2 stars 3 stars 4 stars 5 stars
comments

Hindi Mo Ba Alam Tab

-----------------------------------------------------------------------------
			 Hindi mo ba alam - Siakol
-----------------------------------------------------------------------------
Tabbed by:XY28
Email:freyalise2_0@yahoo.com

note:sabay nyo nlng ung alam nyong chords...k?
[ Tab from: http://www.guitartabs.cc/tabs/s/siakol/hindi_mo_ba_alam_tab_ver_2.html ]
e|---------------------8-7---7-10-8-7----------------------------|
B|-----------------6/8-----8----------10-8h10---8-7-5------------|
G|--------4-5/7-7^------------------------------------7-5-4------|
D|--4-5-7---------------------------------------------------7----|
A|---------------------------------------------------------------|
E|---------------------------------------------------------------|
L|ligaya....

e|--7h8p7-----10------|
B|--------8---12------|da
G|------------11------|  la
D|--------------------|    wa
A|--------------------|      ...
E|--------------------|

e|----------5-7-5---5-----------------------------------------------|
B|----5-7-8-------8---8-7-8----8-7-5--------------------------------|
G|--5--------------------------------7-5-4--------------------------|
D|-----------------------------------------7-5-7-5-4---5-4----------|
A|---------------------------------------------------7-----7-5-3----|
E|------------------------------------------------------------------|

L=lyrics

para kay jonar to!!!
Comments