Siakol - Bakit Ba Chords & Tabs

 

Bakit Ba Chords & Tabs

Siakol Chords & Tabs

Version: 11 Type: Tab 0 ratings
1 star 2 stars 3 stars 4 stars 5 stars
comments

Bakit Ba Tab

Siakol - Bakit Ba
Tab type: solo 
Tabbed by: RST 2/2/05

E|------------------5---5/7-7-7---------------------------------------------|
B|------------5-7/8---8---------10-8-7-10-8-7-------7-8/10-10---------------|
G|------4-5-7---------------------------------9-7-9-------------------------|
D|--5-7---------------------------------------------------------------------|
A|--------------------------------------------------------------------------|
E|--------------------------------------------------------------------------|
[ Tab from: http://www.guitartabs.cc/tabs/s/siakol/bakit_ba_tab_ver_11.html ]
E|--10-8-7h8---10-8-7------10-8-7h8---10-8-7------10-8-7h8------------------|
B|-----------8--------8-10----------8--------8-10----------8----------------|
G|--------------------------------------------------------------------------|
D|--------------------------------------------------------------------------|
A|--------------------------------------------------------------------------|
E|--------------------------------------------------------------------------|

E|--10-8-7---------------12-10-9-10-9---------------------------------------|
B|---------8-10-11-12-12---------------12b12-b10----------------------------|
G|--------------------------------------------------------------------------|
D|--------------------------------------------------------------------------|
A|--------------------------------------------------------------------------|
E|--------------------------------------------------------------------------|

I think this tab is 97% accurate since this is the first solo tab I made. 
This tab is completely ear-transcribed even though it may sound like the original
solo. All I mean is this tab is not the artist's official work! Enjoy! Email me for
corrections: enneth_19@yahoo.com
Comments