Siakol - Bakit Ba Chords & Tabs

 

Bakit Ba Chords & Tabs

Siakol Chords & Tabs

Version: 1 Type: Tab 0 ratings
1 star 2 stars 3 stars 4 stars 5 stars
comments

Bakit Ba Tab

   
Bakit Ba?
Siakol

johnsantos_17@yahoo.com
     
       G       Em       C       D
E------3-------0--------0------2----
B------3-------0--------1------3----
G------0-------0--------0------2----
D------0-------2--------2------0----
A------2-------2--------3------0----
E------3----------------------------

      A       Bm      E     Am
E-----0-------2-------0-----0-------
B-----2-------3-------0-----1-------
G-----2-------4-------1-----2-------
D-----2-------4-------2-----2-------
A-----0-------2-------2-----0-------
E---------------------0-------------

I. Intro
(Gtrs. 1 & 2)

G - Em - C - D

II. 

Follow the chords: (Gtrs. 1&2)

G- Bm- Em- Am- D

III. Chorus

(Gtr. 1 – Do the same as Intro)

(Gtr. 2)

Bakit ba - kit ba

E------------------------------
B--------12-----------12-------
G------------12-----------12---
D----------------12------------
A---10-------------------------
E------------------------------


E--------7------7--------------
B----------8-------8-----------
G------------9-----------------
D------------------------------
A----7-------------------------
E------------------------------




Iniwan mong nag-iisa

E------------------------------
B------8----------8------------
G---------9----------9---------
D------------10----------------
A------------------------------
E---8--------------------------


E------------------------------
B-------10----------10---------
G-----------11----------11-----
D---------------12-------------
A---10-------------------------
E------------------------------

Repeat

Sinusunod naman kita 


E------------------------------
B------8----------8------------
G---------9----------9---------
D------------10----------------
A------------------------------
E---8--------------------------


E------------------------------
B-------10----------10---------
G-----------11----------11-----
D---------------12-------------
A---10-------------------------
E------------------------------
 

Kahit ano kinakaya

E------------------------------
B------8----------8------------
G---------9----------9---------
D------------10----------------
A------------------------------
E---8--------------------------


E------------------------------
B-------10----------10---------
G-----------11----------11-----
D---------------12-------------
A---10-------------------------
E------------------------------

Wala pa ring kwenta, bakit ba?

E------------------------------
B------8----------8------------
G---------9----------9---------
D------------10----------------
A------------------------------
E---8--------------------------


E------------------------------
B-------10----------10---------
G-----------11----------11-----
D---------------12-------------
A---10-------------------------
E------------------------------

Repeat intro.
 
Adlib:

Gtr 1 (do chorus chords)

Gtr 2
[ Tab from: http://www.guitartabs.cc/tabs/s/siakol/bakit_ba_tab.html ]
E-------------------------------------------5------5—5h7--7----
B-----------------------------5---7---8-------8----------------
G---------------4---5---7--------------------------------------
D------5---7---------------------------------------------------
A--------------------------------------------------------------
E--------------------------------------------------------------


E---7---5-------5-------------------------------------5--------
B------------8-------8---7--8--7----5---7---7h8----------------
G--------------------------------------------------------------
D--------------------------------------------------------------
A--------------------------------------------------------------
E--------------------------------------------------------------

E---10--8--7----10--8--7---5------5----------------------------
B----------------------------------8-----8—7-h-8--8------------
G--------------------------------------------------------------
D--------------------------------------------------------------
A--------------------------------------------------------------
E--------------------------------------------------------------

E------------------5-----------------------------5-------------
B-------5--7--8-----8--7--5-------5---7sl/8--------------------
G---7---------------------------7------------------------------
D--------------------------------------------------------------
A--------------------------------------------------------------
E--------------------------------------------------------------

E---10---8---7---8--------10---8---7---------------------------
B----------------------8-------------------8—8-sl/-10----------
G--------------------------------------------------------------
D--------------------------------------------------------------
A--------------------------------------------------------------
E--------------------------------------------------------------





E---10---8---7---8--------10---8---7---------------------------
B----------------------8-------------------8—8-sl/-10----------
G--------------------------------------------------------------
D--------------------------------------------------------------
A--------------------------------------------------------------
E--------------------------------------------------------------


E---10---8---7---8--------10---8---7-------------------------------------
B----------------------8-------------------8—8-sl/-10---10-sl/-12---12---
G------------------------------------------------------------------------
D------------------------------------------------------------------------
A------------------------------------------------------------------------
E------------------------------------------------------------------------

E---12--10--9--10--9-7-7h9p7--------------
B--------------------------------10-------
G-----------------------------------------
D-----------------------------------------
A-----------------------------------------
E-----------------------------------------


(Gtrs. 1 & 2) do the chorus (with 1 whole note or 2 frets higher)
A- F#m- D- E

=====¤w&_17=====
Comments