Shy Temper - Friend Chords & Tabs

 

Friend Chords & Tabs

Shy Temper Chords & Tabs

Version: 1 Type: Tab 0 ratings
1 star 2 stars 3 stars 4 stars 5 stars
comments

Friend Tab

 

All right this is a song by a san diego band, but its really cool!

intro
------------------------------------------------------------------
------------------------------------------------------------------
------------------------------------------------------------------
------------------------------------------------------------------
-----7----7----5----5----3----3----5----5------------         X2---------------------
---99-9 99-9-77-7-77-7-55-5-55-5-77-7-77-7----------------------------
[ Tab from: http://www.guitartabs.cc/tabs/s/shy_temper/friend_tab.html ]
verse
------------------------------------------------------------------
------------------------------------------------------------------
------------------------------------------------------------------
---3----3----5----5----6----6----5----5---------------------------
-33-3-33-3-33-3-33-3-33-3-33-3-33-3-33-3---------------------------
------------------------------------------------------------------
chorus

---------------------------------------------------------------------
---------------------------------------------------------------------
---------------------------------------------------------------------
-77777777-55555555--33333333--55555555---------------------------------------------------------------
-77777777-55555555--33333333--55555555---------------------------------------------------------------
-99999999-77777777--55555555--77777777---------------------------------------------------------------


intro 2x
verse 4x
chorus 2x
verse 8x 
chorus 2x
verse- 4x
intro- 2x
Comments