Shuriken - Super Pursuit Chords & Tabs

 

Super Pursuit Chords & Tabs

Shuriken Chords & Tabs

Version: 1 Type: Tab 0 ratings
1 star 2 stars 3 stars 4 stars 5 stars
comments

Super Pursuit Tab

   
Super Pursuit
Shuriken
http://www.shuriken.co.uk/

Here is a tab for Scunthorpe's finest, Shuriken. Super Pursuit is on the
latest EP 'Evacuate/Disintegrate' which is available from the website above.

Tabbed by Stu Wilson one Sunday afternoon in March 2005
http://www.freewebs.com/about12

/ : slide
h : hammer
p : pull-off
^ : bend up

INTRO

GUITAR 1 (Martin) LEAD

E------------------------------------------------------------------------------------------------------|
A------------------------------------------------------------------------------------------------------|
D------------------------------------------------------------------------------------------------------| x2
G------------------------------------------------------------------------------------------------------|
B------------------------------------------------------------------------------------------------------|
E-6-7-9-6-7-9-6-7-9-6-7-9-6-7-9---6-7-9-6-7-9-6-7-9-6-7-9-6-7-9---6-7-9-6-7-9-6-7-9-6-7-9-6h7-6-7^--6--|


GUITAR 2 (Fov) DISTORTED
 G#5                              B5                             F#5                        C#5
E-4-------------------------------x-------------------------------2--------------------------x-------|
A-6-------------------------------2-------------------------------4--------------------------4-------|
D-6-------------------------------4-------------------------------4--------------------------6-------| x2
G-x-------------------------------4-------------------------------x--------------------------6-------|
B-x-------------------------------x-------------------------------x--------------------------x-------|
E-x-------------------------------x-------------------------------x--------------------------x-------|


VERSE

BOTH GUITARS DISTORTED
 G#5                      B5                                  F#5
E-4-----------------------x------------------------------------2-------------------------------------|
A-6-----------------------2------------------------------------4-------------------------------------|
D-6-----------------------4------------------------------------4-------------------------------------|
G-x-----------------------4------------------------------------x-------------------------------------|
B-x-----------------------x------------------------------------x-------------------------------------|
E-x-----------------------x------------------------------------x-------------------------------------|
   Get sucked in for the ride and every second chance it just falls apart

                          C#5
E--------------------------x--------------------------------------------------------------------------|
A--------------------------4--------------------------------------------------------------------------|
D--------------------------6--------------------------------------------------------------------------|
G--------------------------6--------------------------------------------------------------------------|
B--------------------------x--------------------------------------------------------------------------|
E--------------------------x--------------------------------------------------------------------------|
     I'm never switching sides

 G#5                                               B5                                            F#5
E-4------------------------------------------------x----------------------------------------------2---------|
A-6------------------------------------------------2----------------------------------------------4---------|
D-6------------------------------------------------4----------------------------------------------4---------|
G-x------------------------------------------------4----------------------------------------------x---------|
B-x------------------------------------------------x----------------------------------------------x---------|
E-x------------------------------------------------x----------------------------------------------x---------|
 It's o.k cos I know that you're right behind me now. Guess you really didn't stop to find every single page

            C#5
E------------x----------------------------------------------------------------------------------------|
A------------4----------------------------------------------------------------------------------------|
D------------6----------------------------------------------------------------------------------------|
G------------6----------------------------------------------------------------------------------------|
B------------x----------------------------------------------------------------------------------------|
E------------x----------------------------------------------------------------------------------------|
  That I tore out

   C#5                       E7                                       C#5
E---x------------------------x-----------------------------------------x---------------------------------|
A---4------------------------7-----------------------------------------4---------------------------------|
D---6------------------------9-----------------------------------------6---------------------------------|
G---6------------------------9-----------------------------------------6---------------------------------|
B---x------------------------x-----------------------------------------x---------------------------------|
E---x------------------------x-----------------------------------------x---------------------------------|
He said, he didn't want to make that sound but from the look in your eyes

             D#5    E7                          C#5                D#5    E7                     C5
E-------------x-----x----------------------------x------------------x-----x----------------------x---------|
A-------------6-----7----------------------------4------------------6-----7----------------------3---------|
D-------------8-----9----------------------------6------------------8-----9----------------------5---------|
G-------------8-----9----------------------------6------------------8-----9----------------------5---------|
B-------------x-----x----------------------------x------------------x-----x----------------------x---------|
E-------------x-----x----------------------------x------------------x-----x----------------------x---------|
I can see you're fading, I'm still screaming along. Maybe some things never die, well leave it alone


CHORUS

BOTH GUITARS DISTORTED
    E7                C#5                  B5                     A5
E---x------------------x-------------------x----------------------x--------------------------------------|
A---7------------------4-------------------2----------------------0--------------------------------------|
D---9------------------6-------------------4----------------------2--------------------------------------|
G---9------------------6-------------------4----------------------2--------------------------------------|
B---x------------------x-------------------x----------------------x--------------------------------------|
E---x------------------x-------------------x----------------------x--------------------------------------|
       The next step,     I'll find out       Even if (it's) the last thing that I do

    E7                C#5                  B5                     A5 (Guitar 1 LET RING)
E---x------------------x-------------------x----------------------x--|
A---7------------------4-------------------2----------------------0--|(Guitar 2 plays top B and E strings
D---9------------------6-------------------4----------------------2--|open to create the background sound)
G---9------------------6-------------------4----------------------2--|
B---x------------------x-------------------x----------------------x--|
E---x------------------x-------------------x----------------------x--|
      Til everything,     has faded out                              Write these questions down


VERSE 2

BOTH GUITARS DISTORTED
                       G#5                          B5                              F#5                   C#5
E-----------------------4---------------------------x--------------------------------2---------------------x------|
A-----------------------6---------------------------2--------------------------------4---------------------4------|
D-----------------------6---------------------------4--------------------------------4---------------------6------|
G-----------------------x---------------------------4--------------------------------x---------------------6------|
B-----------------------x---------------------------x--------------------------------x---------------------x------|
E-----------------------x---------------------------x--------------------------------x---------------------x------|
   Say catch up if you can, this is nothing like romance This is everything that I tried to leave so far behind
[ Tab from: http://www.guitartabs.cc/tabs/s/shuriken/super_pursuit_tab.html ]
    G#5                                         B5                             F#5
E----4------------------------------------------x-------------------------------2---------|
A----6------------------------------------------2-------------------------------4---------|
D----6------------------------------------------4-------------------------------4---------|
G----x------------------------------------------4-------------------------------x---------|
B----x------------------------------------------x-------------------------------x---------|
E----x------------------------------------------x-------------------------------x---------|
It's ok cos I know that you're right behind me now. The wind is at my heels and I won't lie

            C#5
E------------x----------------------------------------------------------------------------------------|
A------------4----------------------------------------------------------------------------------------|
D------------6----------------------------------------------------------------------------------------|
G------------6----------------------------------------------------------------------------------------|
B------------x----------------------------------------------------------------------------------------|
E------------x----------------------------------------------------------------------------------------|
  It's no surprise

   C#5                       E7                                       C#5
E---x------------------------x-----------------------------------------x---------------------------------|
A---4------------------------7-----------------------------------------4---------------------------------|
D---6------------------------9-----------------------------------------6---------------------------------|
G---6------------------------9-----------------------------------------6---------------------------------|
B---x------------------------x-----------------------------------------x---------------------------------|
E---x------------------------x-----------------------------------------x---------------------------------|
He said, he didn't want to break it down and from the look in your eyes

             D#5    E7                          C#5                D#5    E7                     C5
E-------------x-----x----------------------------x------------------x-----x----------------------x---------|
A-------------6-----7----------------------------4------------------6-----7----------------------3---------|
D-------------8-----9----------------------------6------------------8-----9----------------------5---------|
G-------------8-----9----------------------------6------------------8-----9----------------------5---------|
B-------------x-----x----------------------------x------------------x-----x----------------------x---------|
E-------------x-----x----------------------------x------------------x-----x----------------------x---------|
I can see you're faking, I'm still screaming along. Maybe some things never die.       Leave it alone

CHORUS

BOTH GUITARS DISTORTED
    E7                C#5                  B5                     A5
E---x------------------x-------------------x----------------------x--------------------------------------|
A---7------------------4-------------------2----------------------0--------------------------------------|
D---9------------------6-------------------4----------------------2--------------------------------------|
G---9------------------6-------------------4----------------------2--------------------------------------|
B---x------------------x-------------------x----------------------x--------------------------------------|
E---x------------------x-------------------x----------------------x--------------------------------------|
       The next step,     I'll find out       Even if (it's) the last thing that I do

    E7                C#5                  B5                     A5 (Guitar 1 LET RING)
E---x------------------x-------------------x----------------------x--|
A---7------------------4-------------------2----------------------0--|(Guitar 2 plays top B and E strings
D---9------------------6-------------------4----------------------2--|open to create the background sound)
G---9------------------6-------------------4----------------------2--|
B---x------------------x-------------------x----------------------x--|
E---x------------------x-------------------x----------------------x--|
      Til everything,     has faded out                              Write these questions down


BRIDGE

GUITAR 1 (Martin) CLEAN

   C#5     E7     	C#5          E7                       C#5                      E7
E---x------x-------------x-----------x-------------------------x-----------------------x-------------------------|
A---4------7-------------4-----------7-------------------------4-----------------------7-------------------------|
D---6------9--x4---------6-----------9-------------------------6-----------------------9---x3--------------------|
G---6------9-------------6-----------9-------------------------6-----------------------9-------------------------|
B---x------x-------------x-----------x-------------------------x-----------------------x-------------------------|
E---x------x-------------x-----------x-------------------------x-----------------------x-------------------------|
                          Wait til Monday, I'll find out you say, If I can figure it out

(Struggle with the higher parts of Martin's lead here. Haven't tabbed them cos they'd be crap...and wrong!)

GUITAR 2 (Fov) DISTORTED

Comes in after 2nd "Wait til Monday, I'll find out you say, If I can figure it out"
   C#5     E7
E---x------x-------------|
A---4------7-------------|
D---6------9--x6---------|
G---6------9-------------|
B---x------x-------------|
E---x------x-------------|

INTRO

GUITAR 1 (Martin) LEAD

E------------------------------------------------------------------------------------------------------|
A------------------------------------------------------------------------------------------------------|
D------------------------------------------------------------------------------------------------------| x2
G------------------------------------------------------------------------------------------------------|
B------------------------------------------------------------------------------------------------------|
E-6-7-9-6-7-9-6-7-9-6-7-9-6-7-9---6-7-9-6-7-9-6-7-9-6-7-9-6-7-9---6-7-9-6-7-9-6-7-9-6-7-9-6h7-6-7^--6--|


GUITAR 2 (Fov) DISTORTED
 G#5                              B5                             F#5                        C#5
E-4-------------------------------x-------------------------------2--------------------------x-------|
A-6-------------------------------2-------------------------------4--------------------------4-------|
D-6-------------------------------4-------------------------------4--------------------------6-------| x2
G-x-------------------------------4-------------------------------x--------------------------6-------|
B-x-------------------------------x-------------------------------x--------------------------x-------|
E-x-------------------------------x-------------------------------x--------------------------x-------|

PRE-CHORUS

BOTH GUITARS DISTORTED
   C#5                       E7                                       C#5
E---x------------------------x-----------------------------------------x---------------------------------|
A---4------------------------7-----------------------------------------4---------------------------------|
D---6------------------------9-----------------------------------------6---------------------------------|
G---6------------------------9-----------------------------------------6---------------------------------|
B---x------------------------x-----------------------------------------x---------------------------------|
E---x------------------------x-----------------------------------------x---------------------------------|
He said, he didn't want to break it down and from the look in your eyes

             D#5    E7                          C#5                D#5    E7                     C5
E-------------x-----x----------------------------x------------------x-----x----------------------x---------|
A-------------6-----7----------------------------4------------------6-----7----------------------3---------|
D-------------8-----9----------------------------6------------------8-----9----------------------5---------|
G-------------8-----9----------------------------6------------------8-----9----------------------5---------|
B-------------x-----x----------------------------x------------------x-----x----------------------x---------|
E-------------x-----x----------------------------x------------------x-----x----------------------x---------|
I can see you're faking, I'm still screaming along. Maybe some things never die.

    C#5                                           E7
E----x--------------------------------------------x-------------------------------------------------------|
A----4--------------------------------------------7-------------------------------------------------------|
D----6--------------------------------------------9-----x3------------------------------------------------|
G----6--------------------------------------------9-------------------------------------------------------|
B----x--------------------------------------------x-------------------------------------------------------|
E----x--------------------------------------------x-------------------------------------------------------|
     Right to the back cos you're right behind me now!

        C5
E-------x---------|
A-------3---------|
D-------5---------|
G-------5---------|
B-------x---------|
E-------x---------|
 Leave it alone
Comments