Showoff - Tell Me Chords & Tabs

 

Tell Me Chords & Tabs

Showoff Chords & Tabs

Version: 1 Type: Tab 0 ratings
1 star 2 stars 3 stars 4 stars 5 stars
comments

Tell Me Tab

ARTIST:Showoff
SONG:Tell Me
TABBED BY:Jim Warren


STANDARD TUNING


GUITAR 1

INTRO
E------------------------
B---31001033---310010----
G-00----------0------00--
D------------------------       (2x)
A------------------------
E------------------------

[ Tab from: http://www.guitartabs.cc/tabs/s/showoff/tell_me_tab.html ]
E------------------------------------------
B--3-5310----------------3-5310-33335557778
G-0-0--------2-4202020--0-0----------------
D----------00-0----------------------------
A------------------------------------------
E------------------------------------------


Questions/Comments?  Jim3EB32786@AOL.com
Comments