Showoff - Spill Chords & Tabs

 

Spill Chords & Tabs

Showoff Chords & Tabs

Version: 2 Type: Bass Tab 0 ratings
1 star 2 stars 3 stars 4 stars 5 stars
comments

Spill Bass Tab

Song: Spill
Band: Showoff
Album:Showoff
Tabbed by: Mike (Emty981@aol.com)

[ Tab from: http://www.guitartabs.cc/tabs/s/showoff/spill_btab_ver_2.html ]
Intro and verse 4x
G|----------------------------------------------------
D|-----------------------------------------------------
A|---33-------00-------33-------00---------------
E|--------11-------11-------11-------11----------
     Pre Chorus 2x
G|----------------------------------------------------
D|-----------------------------------------------------
A|---33333333--------------00000000----------------------
E|-----------------11111111--------------11111111--------

     Chorus 1x
G|----------------------------------------------------
D|-----------------------------------------------------
A|---3--2-----3--2-----3--2--0------3-3-----------
E|----------3---------3-------------3-------
    
Im pretty sure this tab is correct but if you dont think it is email 

Comments