Showoff - Are You With Me Chords & Tabs

 

Are You With Me Chords & Tabs

Showoff Chords & Tabs

Version: 1 Type: Tab 0 ratings
1 star 2 stars 3 stars 4 stars 5 stars
comments

Are You With Me Tab

Artist: Showoff
Song: Are You With Me
Written by: Mel duckdodger182@yahoo.com
 
Intro

e|-7--7--7--7--8--8--10--8-10-8----|
B|--8--8--8--8--8--8---8-----------|
G|---------------------------------|play 4 more times
D|---------------------------------|  
A|---------------------------------|
E|---------------------------------|


chords after intro (guitar and bass(single notes not chords))

[ Tab from: http://www.guitartabs.cc/tabs/s/showoff/are_you_with_me_tab.html ]
e|---------------------------------------|
B|---------------------------------------|
G|---------------------------------------|repeat throughout song
D|-5-5-5-5-9-9-9-10-10-10-10-12-12-12----|  
A|-5-5-5-5-9-9-9-10-10-10-10-12-12-12----|
E|-3-3-3-3-7-7-7-8--8--8--8--10-10-10----|

at the chorus it goes:
e|-------------------------------|
B|-------------------------------|
G|-------------------------------|
D|-5-5---12-12-12--10--10--10--10|  
A|-5-5---12-12-12--10--10--10--10|
E|-3-3---10-10-10---8---8---8---8|

end.
Comments