Showbread - Mouth Like A Magazine Chords & Tabs

 

Mouth Like A Magazine Chords & Tabs

Showbread Chords & Tabs

Version: 2 Type: Tab 0 ratings
1 star 2 stars 3 stars 4 stars 5 stars
comments

Mouth Like A Magazine Tab

   
Tabbed by: James Grillo
E-mail: jagrillo@mchsi.com

Tuning: Standard
                           
e|------------------------------------------------------------------------|
B|------------------------------------------------------------------------|
G|-6-6-6-66---------------------------------------------------------------|
D|-6-6-6-66--------4-4-44-------------------------------------------------|
A|-4-4-4-44-2\-4---4-4-44-------------------------------------------------|
E|--------------3~-2-2-22-------------------------------------------------|

Repeat that for intro and choruse, the rest is keyboard, drums, and bass.

For the bridge, its..
[ Tab from: http://www.guitartabs.cc/tabs/s/showbread/mouth_like_a_magazine_tab_ver_2.html ]
e|------------------------------------------------------------------------|
B|------------------------------------------------------------------------|
G|-6-6---------1-1--------------------------------------------------------|
D|-6-6---4-4---2-2---6-6--------------------------------------------------|
A|-4-4---4-4---2-2---6-6--------------------------------------------------|
E|-------2-2---------4-4--------------------------------------------------|

Repeat 2x

Well thats pretty much it. If you see any mistakes or anything I left out, email it to me.     
                      enjoy....


| /  slide up
| \  slide down
| h  hammer-on
| p  pull-off
| ~  vibrato
| +  harmonic
| x  Mute note
Comments