Showbread - Mouth Like A Magazine Chords & Tabs

 

Mouth Like A Magazine Chords & Tabs

Showbread Chords & Tabs

Version: 1 Type: Tab 0 ratings
1 star 2 stars 3 stars 4 stars 5 stars
comments

Mouth Like A Magazine Tab

   
-------------------------------------------------------------------------------
	             SHOWBREAD - Mouth Like a Magazine
-------------------------------------------------------------------------------

Newer artist on Tooth and Nail records

Tabbed by: Mike Holmesmith
Email: mikeyh@sprintpcs.com

Tuning: Standard

e|-4-4---4-4-4---4-4-4---4-4-4-------2-2---2-2-2---2-2-2---2-2-3-2-0---------|
B|-6-6---6-6-6---6-6-6---6-6-6-------2-2---2-2-2---2-2-2---2-2-3-2-0---------|
G|-6-6---6-6-6---6-6-6---6-6-6-------2-2---2-2-2---2-2-2---2-2-3-2-0---------|
D|-6-6---6-6-6---6-6-6---6-6-6-------4-4---4-4-4---4-4-4---4-4-5-4-2---------|
A|-4-4---4-4-4---4-4-4---4-4-4---2---4-4---4-4-4---4-4-4---4-4-5-4-2---------|
E|-4-4---4-4-4---4-4-4---4-4-4---2---2-2---2-2-2---2-2-2---2-2-3-4-0---------|
[ Tab from: http://www.guitartabs.cc/tabs/s/showbread/mouth_like_a_magazine_tab.html ]
basically just repeat that for the intro and the chorus, with 2 six counts of
the C# before the second or third chorus, the rest of the song is just drums,
keytar and bass.  there's also a slide in there.  

just barre across all of the strings and slide 4\2/10\4

later in the song it breaks into a prechorus that just does

e|-4-4-4-4-4-4-  --2-2-2-2-2-2--  -|
B|-6-6-6-6-6-6-  --2-2-2-2-2-2--  -|
G|-6-6-6-6-6-6-  --2-2-2-2-2-2--  -|
D|-6-6-6-6-6-6-X2--4-4-4-4-4-4--X2-|
A|-4-4-4-4-4-4-  --4-4-4-4-4-4--  -|
E|-4-4-4-4-4-4-  --2-2-2-2-2-2--  -|

that's pretty much the whole guitar part, if anybody can figure out the keytar
part, i'd like to know it.

| /  slide up
| \  slide down
| h  hammer-on
| p  pull-off
| ~  vibrato
| +  harmonic
| x  Mute note
===============================================================================
Comments