Showbread - Missing Wife Chords & Tabs

 

Missing Wife Chords & Tabs

Showbread Chords & Tabs

Version: 2 Type: Tab

Missing Wife Tab

   
----------------------------------------------------------------------------
 The Missing Wife------------------------------------->Showbread	
---------------------------------------------------------------------------
Tabbed by: 1234flip
Email: fmikef@netzero.net

Tuning: EADGBE (STANDARD)
      

      Intro 
   
    D X12      DMaj7(i think)            Em X12   A X12  
e|--2----------2---------------------------------0--0--0--0----------------|
B|--3----------2--------------------2------------3/-5/-3/-2----------------|
G|--2----------2--------------------2--------------------------------------|
D|--------------------------2-------2--------------------------------------|
A|--------------------------2----------------------------------------------|
E|-------------------------------------------------------------------------|
[ Tab from: http://www.guitartabs.cc/tabs/s/showbread/missing_wife_tab_ver_2.html ]
     Verse  
       D   X12 DMaj7X12    Em X12   A X12  
e|--2----------2----------------------------------0--0--0--0---------------|
B|--3----------2--------------------2------------3/-5/-3/-2----------------|
G|--2----------2--------------------2--------------------------------------|
D|--------------------------2-------2--------------------------------------|
A|--------------------------2----------------------------------------------|
E|-------------------------------------------------------------------------|

   Chorus
       D   X12 DMaj7 X12    Em X12   A X12  
e|--2----------2----------------------------------0--0--0--0---------------|
B|--3----------2--------------------2------------3/-5/-3/-2----------------|
G|--2----------2--------------------2--------------------------------------|
D|--------------------------2-------2--------------------------------------|
A|--------------------------2----------------------------------------------|
E|-------------------------------------------------------------------------|

    Verse 2          X2
e|-----2---2---2-------2---2---2---7---7---5---5--5--5--5---5----------|
B|---3-----------3---2-----------2---5---5---5---5--3---3-----3--------|
G|-2-----2---2-----2-----2---2------------------------------4----------|
D|---------------------------------------------------------------------|
A|---------------------------------------------------------------------|
E|---------------------------------------------------------------------|
The Last Guy almost had it right but not quite.
THANKS JOEY for the help
You had it almost right. OH SNAP!