Showbread - Missing Wife Chords & Tabs

 

Missing Wife Chords & Tabs

Showbread Chords & Tabs

Version: 1 Type: Tab

Missing Wife Tab

   
Verse:
D Dmaj7 Dm9

you can find the rythm out on your own
[ Tab from: http://www.guitartabs.cc/tabs/s/showbread/missing_wife_tab.html ]
e-222222222-222222222-000000000-0-0-0-0-0---------------------------|
b-333333333-222222222-111111111-3/5\3\1 0---------------------------|
G-222222222-222222222-222222222-------------------------------------|
D-000000000---------------------------------------------------------|
A-------------------------------------------------------------------|
E-------------------------------------------------------------------|

Riff 2
e|-----2---2---2-------2---2---2---7---7---5---5--5--5---5--5---|
B|---3-----------3---2-----------2---5---5---5---5--3---3-----3-|
G|-2-----2---2-----2-----2---2-----------------------------4----|
D|--------------------------------------------------------------|
A|--------------------------------------------------------------|
E|--------------------------------------------------------------|