Showaddywaddy - Hey Rock And Roll Chords & Tabs

 

Hey Rock And Roll Chords & Tabs

Showaddywaddy Chords & Tabs

Version: 1 Type: Bass Tab 0 ratings
1 star 2 stars 3 stars 4 stars 5 stars
comments

Hey Rock And Roll Bass Tab

Hey Rock And Roll
This the first single by the worlds biggest Rock and Roll band
Showaddywaddy reached UK number 2 in 1974. I remember them winning
the talent show New Faces when one of the judges an eminent song
writer said they would never make it....Ha! Tab by bass50611
Great down to earth bopping song. Any comments bass254@btinternet.com

Intro:

G|------------------------|--------------------------------------|
D|--16 BARS OF DRUMMIMG &-|--------------------------------------|
A|--BAND MEMBERS CHEERING-|--------------------------------------|
E|------------------------|-12\5-5-5-5-5-5-5-5---2-2-2-2-2-2-2-2-|

G|-----------------------------------|
D|-----------------------------------|
A|-5-5-5-5-5-5-5-5---7-7-7-7-7-7-7-7-|
E|-----------------------------------|
[ Tab from: http://www.guitartabs.cc/tabs/s/showaddywaddy/hey_rock_and_roll_btab.html ]
Verse:                                                   (PLAY THIS x2)
G|---------------------------------------------------------------------|
D|---------------------------------------------------------------------|
A|-----------------------------------5-5-5-5-5-5-5-5---7-7-7-7-7-7-7-7-|
E|-5-5-5-5-5-5-5-5---2-2-2-2-2-2-2-2-----------------------------------|

Chorus:
           .           .           .       (PLAY THIS x2)
G|-------------------------------------------------------|
D|-------------------------------------------------------|
A|-0-40-55-7---0-40-55-7---0-40-55-7---99999999-9999-9-9-|
E|-------------------------------------------------------|

REPEAT VERSE:

REPEAT CHORUS:

Solo: ~ Use Verse:

REPEAT CHORUS:

Outro:      (REPEAT TO FADE/END
G|-----------------------------|
D|-----------------------------|
A|-0-40-55-7-5-4----0-40-55-7--|
E|--------------7------------7-|
Comments