Shout Out Louds - Theres Nothing Chords & Tabs

 

Theres Nothing Chords & Tabs

Shout Out Louds Chords & Tabs

Version: 1 Type: Tab 0 ratings
1 star 2 stars 3 stars 4 stars 5 stars
comments

Theres Nothing Tab

   
---------------------------------------------------------------------
		  There's Nothing - Shout Out Louds
---------------------------------------------------------------------
Tabbed by: Matty C
Email: Happyquakiduck@msn.com

Tuning: Standard EADGBE

Main Riff
e|------------------------------------------------------------------|
B|------------------------------------------------------------------|
G|--6666-6h7-7-6-7-6-7-9-9X5-Then-6666-6h7-7-6-7-6-7-6-5^-----------|
D|------------------------------------------------------------------|
A|------------------------------------------------------------------|
E|------------------------------------------------------------------|

Verse/Chorus
     A		Bm    D	
e|---5-----------2----2---------------------------------------------|
B|---5-----------3----3---------------------------------------------|
G|---6-----------4----2---------------------------------------------|
D|---7-----------4----0---------------------------------------------|
A|---7-----------2----x---------------------------------------------|
E|---5--------------------------------------------------------------|
[ Tab from: http://www.guitartabs.cc/tabs/s/shout_out_louds/theres_nothing_tab.html ]
Chorus Riff
e|------------------------------------------------------------------|
B|------------------------------------------------------------------|
G|------------------------------------------X2-(14-13-14)-----------|
D|--7-7-9-11-12-11-9-11\-9-11-12-14-12-11-12------------------------|
A|------------------------------------------------------------------|
E|------------------------------------------------------------------|

Or

e|------------------------------------------------------------------|
B|-----------------------------------X2-(10-9-10)-------------------|
G|--2-2-4-6-7-6-4-6\-4-4-6-7-9-7-6-7--------------------------------|
D|------------------------------------------------------------------|
A|------------------------------------------------------------------|
E|------------------------------------------------------------------|

There is a lot of random feedback noise at times

You can match it by playing around like this
e|----11--9--11--9--11^-9-11^-12-11-9-7-9---------------------------|
B|------------------------------------------------------------------|
G|------------------------------------------------------------------|
D|------------------------------------------------------------------|
A|------------------------------------------------------------------|
E|------------------------------------------------------------------|

Also, there is a lot of pick sliding around on the D string.

This song ends on A


That's really all there is to it, it's not a hard song.

Questions, comments, compliments, or corrections go to Happyquakiduck@msn.com

This one is dedicated to my guitar Roxxy Haha :)

Matty C <3
Comments