Shout Out Louds - Please Please Please Chords & Tabs

 

Please Please Please Chords & Tabs

Shout Out Louds Chords & Tabs

Version: 1 Type: Tab 0 ratings
1 star 2 stars 3 stars 4 stars 5 stars
comments

Please Please Please Tab

-------------------------------------------------------------------------------
			     Please Please Please - Shout Out Louds
-------------------------------------------------------------------------------
Tabbed by: Matty C
Email: Happyquakiduck@msn.com

Tuning: Standard EADGBE

*****GUITAR 1*****

Intro

e|--44-44-44-44------------------------------------------------------------|
B|--55-55-55-55------------------------------------------------------------|
G|--66-66-66-66--Repeat----------------------------------------------------|
D|--66-66-66-66------------------------------------------------------------|
A|--44-44-44-44------------------------------------------------------------|
E|--xx-xx-xx-xx------------------------------------------------------------|

Bass kicks in for four beats
Drum kicks in for four beats


Verse
e|--4444-x--5---7----------------------------------------------------------|
B|--5555-x--5---7----------------------------------------------------------|
G|--6666-x--6---8----------------------------------------------------------|
D|--6666-x--7---9----------------------------------------------------------|
A|--4444-x-(7)-(9)---------------------------------------------------------|
E|--xxxx-x-(5)-(7)---------------------------------------------------------|


Chorus
e|-5------7-----(7)-----4--------------------------------------------------|
B|-5------7------9------5--------------------------------------------------|
G|-6------8------9------6--------------------------------------------------|
D|-7------9------9------6--------------------------------------------------|
A|-7------9------7------4--------------------------------------------------|
E|-5------7------x------x--------------------------------------------------|


Repeat Everything

Bridge
e|--44-----55-----77-----55------------------------------------------------|
B|--55-----55-----77-----55------------------------------------------------|
G|--66-----66-----88-----66------------------------------------------------|
D|--66-----77-----99-----77---x2-then silence------------------------------|
A|--44-----77-----99-----77------------------------------------------------|
E|--xx-----55-----77-----55------------------------------------------------|
[ Tab from: http://www.guitartabs.cc/tabs/s/shout_out_louds/please_please_please_tab.html ]
End on
e|-4-----------------------------------------------------------------------|
B|-5-----------------------------------------------------------------------|
G|-6-----------------------------------------------------------------------|
D|-6-----------------------------------------------------------------------|
A|-4-----------------------------------------------------------------------|
E|-x-----------------------------------------------------------------------|




*****GUITAR 2*****

Silent for intro, comes in just before the verse
e|--4444-x--5---7----------------------------------------------------------|
B|--5555-x--5---7----------------------------------------------------------|
G|--6666-x--6---8----------------------------------------------------------|
D|--6666-x--7---9----------------------------------------------------------|
A|--4444-x-(7)-(9)---------------------------------------------------------|
E|--xxxx-x-(5)-(7)---------------------------------------------------------|


Chorus
e|-------------------------------------------------------------------------|
B|-------------------------------------------------------------------------|
G|----------6--------------------------------------------------------------|
D|-/9~---/9---4-2--/9-7-6--X4-then--6666\4444/9999\6677-6~-----------------|
A|-------------------------------------------------------------------------|
E|-------------------------------------------------------------------------|


Bridge
e|-------------------------------------------------------------------------|
B|--9-9-5---12-12-9---7-7-5---2-2-0-----*Wait 2 measures then come in -----|
G|-------------------------------------------------------------------------|
D|-------------------------------------------------------------------------|
A|-------------------------------------------------------------------------|
E|-------------------------------------------------------------------------|


End on 
e|-------------------------------------------------------------------------|
B|-------------------------------------------------------------------------|
G|-------------------------------------------------------------------------|
D|-6~----------------------------------------------------------------------|
A|-------------------------------------------------------------------------|
E|-------------------------------------------------------------------------|



Order:

Intro *Guitar 1*
Verse
Chorus
Intro *Guitar 1*
Verse
Chorus
Bridge
Chorus

Best SOL song. Questions, comments, compliments, or corrections send to Happyquakiduck@msn.com
Matty C <3
Comments