Shout Out Louds - Please Please Please Chords & Tabs

 

Please Please Please Chords & Tabs

Shout Out Louds Chords & Tabs

Version: 1 Type: Bass Tab 0 ratings
1 star 2 stars 3 stars 4 stars 5 stars
comments

Please Please Please Bass Tab

   
Standard Tuning (E A D G)

Intro (after 2 bars)

|--------|--------|
|--------|--------|
|4-4-4-4-|4-4-4-4-|
|--------|--------|

Verse

|--------|--------|--------|--------| 
|--------|--------|--------|--------|  X 6
|4-4-4-4-|0-0-0-0-|6-6-9-6-|0-0-0-0-|
|--------|--------|--------|--------|

Chorus

|--------|--------|--------|--------|  X 4
|--------|--------|--------|--------|
|0-0-0-0-|2-2-2-2-|7-7-7-7-|4-4-4-4-|
|--------|--------|--------|--------|

Break

|--------|--------|--------|--------|
|--------|--------|--------|--------|
|0-0-0-0-|0-0-0-0-|0-0-0-0-|0-0-2-2-|
|--------|--------|--------|--------|
[ Tab from: http://www.guitartabs.cc/tabs/s/shout_out_louds/please_please_please_btab.html ]
|--------|--------|--------|--------|
|--------|--------|--------|--------|
|4-4-4-4-|4-4-4-4-|4-4-4-4-|4-4-4-4-|
|--------|--------|--------|--------|

Verse X 4

Chorus X 4

Interlude

|--------|--------|--------|--------|
|--------|--------|--------|--------|  X 1
|0-0-0-0-|0-0-0-0-|0-0-0-0-|0-0-2-2-|
|--------|--------|--------|--------|

|--------|--------|--------|--------|
|--------|--------|--------|--------|  X 4
|4-4-4-4-|0-0-0-0-|2-2-2-2-|0-0-0-0-|
|--------|--------|--------|--------|

Chorus until end

End on 

|--------|
|--------|
|0-------|
|--------|

I think theres a little flick in the first bar of the verse riff, but I dont normally
play it. Its an easy song, but its fun to play along to.
And this is my first tab, so rate me!
Comments