Shout Out Louds - Go Sadness Chords & Tabs

 

Go Sadness Chords & Tabs

Shout Out Louds Chords & Tabs

Version: 1 Type: Tab 0 ratings
1 star 2 stars 3 stars 4 stars 5 stars
comments

Go Sadness Tab

   
--------------------------------------------------------------------------
			Go Sadness - Shout Out Louds
--------------------------------------------------------------------------
Tabbed by: Matty C
Email: Happyquakiduck@msn.com

Tuning: Standard EADGBE

Intro
e|-----------3--1111111111111111--------------------------------------|
B|--55x3--33x3--1111111111111111--------------------------------------|
G|--55x5--55x4--2222222222222222--------------------------------------|
D|--55x5--55x5--3333333333333333--------------------------------------|
A|--33x3--33x5--3333333333333333--------------------------------------|
E|-----------3--1111111111111111--------------------------------------|


Verse
Strum these chords
e|--0---0---0---------------------------------------------------------|
B|--1---1---1---------------------------------------------------------|
G|--0---0---2---------------------------------------------------------|
D|--2---0---3---------------------------------------------------------|
A|--3---2---0---------------------------------------------------------|
E|------3-------------------------------------------------------------|

[ Tab from: http://www.guitartabs.cc/tabs/s/shout_out_louds/go_sadness_tab.html ]
Prechorus
e|--333--333--333--333--111-111-111-111-------------------------------|
B|--333--333--333--333--111-111-111-111-------------------------------|
G|--444--444--444--444--222-222-222-222-------------------------------|
D|--555--555--555--555--333-333-333-333-------------------------------|
A|--555--555--555--555--333-333-333-333-------------------------------|
E|--333--333--333--333--111-111-111-111-------------------------------|


Chorus
e|--0--0--0--0--00000000000000000000000000000000----------------------|
B|--1--1--1--1--11111111111111111111111111111111----------------------|
G|--0--0--0--0--22222222222222222222222222222222----------------------|
D|--2--0--2--0--33333333333333333333333333333333----------------------|
A|--3--2--3--2--00000000000000000000000000000000----------------------|
E|-----3-----3--------------------------------------------------------|


Solo
Keyboard transcribed for guitar
e|--------------------------------------------------8-----------------|
B|---10-8-6------------------10-8-6-5---------------x-----------------|
G|-9--------9-5-7/9-7-9-5--9----------7-5-7-9-10-5~-5-----------------|
D|--------------------------------------------------------------------|
A|--------------------------------------------------------------------|
E|--------------------------------------------------------------------|

That's it
Pretty fun song to play
The solo is perfect, the timing is just a bit weird
Practice that solo and play it right, it sounds sweet

Questions, comments, compliments, or corrections go to Happyquakiduck@msn.com

Matty C <3


| /  slide up
| \  slide down
| h  hammer-on
| p  pull-off
| ~  vibrato
| +  harmonic
| x  Mute note
========================================================================
Comments