Shout Out Louds - Comeback Chords & Tabs

 

Comeback Chords & Tabs

Shout Out Louds Chords & Tabs

Version: 2 Type: Tab 0 ratings
1 star 2 stars 3 stars 4 stars 5 stars
comments

Comeback Tab

   

                      "The Comeback"
                      Shout Out Louds



 [Intro/Chorus:]

          C                      F
 -|------------------------------------------------------------------|-
 -|------------------------------------------------------------------|-
 -|-------5-5-5-5---9-9--12-12---10-10-10-10---17-17--16-16----------|-
 -|-------5-5-5-5---x-x--x--x----10-10-10-10---x--x---x--x-----------|-
 -|-------3-3-3-3---7-7--10-10---8--8--8--8----15-15--14-14----------|-
 -|------------------------------------------------------------------|-

          Am                     G
 -|------------------------------------------------------------------|-
 -|------------------------------------------------------------------|-
 -|-------5-5-5-5---9-9--12-12---10-10-10-10---17-17--16-16----------|-
 -|-------5-5-5-5---x-x--x--x----10-10-10-10---x--x---x--x-----------|-
 -|-------3-3-3-3---7-7--10-10---8--8--8--8----15-15--14-14----------|-
 -|------------------------------------------------------------------|-



 [Verse:]

      C     F    Am    G
 -|---------------------------|-
 -|---0-----------------------|-
 -|---9-----------------------|-
 -|---x-----------------------|-
 -|---7-----------------------|-
 -|---------------------------|-


[Solo]
[ Tab from: http://www.guitartabs.cc/tabs/s/shout_out_louds/comeback_tab_ver_2.html ]
Guitar1:
 -|------------------------------------------------------------------|-
 -|------------------------------------------------------------------|-
 -|--12b14r12--10-9--10-9--------------------------------------------|- x2
 -|-----------------------10-10s12-10--12-10--10-12b14r12-12-10-10---|-
 -|------------------------------------------------------------------|-
 -|------------------------------------------------------------------|-


Guitar1:
 -|------------------------------------------------------------------|-
 -|------------------------------------------------------------------|-
 -|-----------------0------9---------------------------9-------------|-
 -|----0--2p0-2p0-2--s--10---------0--2p0-2p0-2--s--10---------------|-
 -|------------------------------------------------------------------|-
 -|------------------------------------------------------------------|-
Guitar2:
 -|------------------------12--------------------------12------------|-
 -|----3--5p3-5p3-5--s--13---------3--5p3-5p3-5--s--13---------------|-
 -|------------------------------------------------------------------|-
 -|------------------------------------------------------------------|-
 -|------------------------------------------------------------------|-
 -|------------------------------------------------------------------|-


Guitar1:
 -|------------------------------------------------------------------|-
 -|------------------------------------------------------------------|-
 -|------------0-----------------------------------------------------|-
 -|-0-2p0-2p0--2s10---0-2p0-2p0--2s12--12-12-12--10-10-10-9-9-10-----|-
 -|------------------------------------------------------------------|-
 -|------------------------------------------------------------------|-
Guitar2:
 -|------------------------------------------------------------------|-
 -|-3-5p3-5p3--5s13---3-5p3-5p3--5s15--15-15-15-15-15-17-17-15-15-13-|-
 -|------------------------------------------------------------------|-
 -|------------------------------------------------------------------|-
 -|------------------------------------------------------------------|-
 -|------------------------------------------------------------------|-
Comments