Shout Out Louds - Comeback Chords & Tabs

 

Comeback Chords & Tabs

Shout Out Louds Chords & Tabs

Version: 1 Type: Tab 0 ratings
1 star 2 stars 3 stars 4 stars 5 stars
comments

Comeback Tab

   
-------------------------------------------------------------------------
			     The Comeback - Shout Out Louds
-------------------------------------------------------------------------
Tabbed by: Matty C
Email: Happyquakiduck@msn.com

Tuning: Standard EADGBE

I decided to tab this song myself.
The one this site has up now it's decent, but not perfect.
The solo was terrible though, Adam plays it completely different.
Besides, it's more fun to know two guitar parts.


Synth Part from the video

e|---------------------------------------------------------------------|
B|----------13~-----------------13-12-13~---------------13-12-13-------|
G|---------------12/14~--\12~-------------12/14~--\12~-----------------|
D|-10-10-10------------------------------------------------------------|
A|---------------------------------------------------------------------|
E|---------------------------------------------------------------------|



*****Guitar 1***** 

Intro/Chorus
e|---------------------------------------------------------------------|
B|---------------------------------------------------------------------|
G|------44-7---5555--12-11---------------------------------------------|
D|-5555-22-5---3333--10-9---Repeat-------------------------------------|
A|-3333----------------------------------------------------------------|
E|---------------------------------------------------------------------|
[ Tab from: http://www.guitartabs.cc/tabs/s/shout_out_louds/comeback_tab.html ]
Verse
      C        F        A        G
e|---------------------------------------------------------------------|
B|---------------------------------------------------------------------|
G|-55555555------------------------------------------------------------|
D|-55555555-33333333-77777777-55555555---------------------------------|
A|-33333333-33333333-77777777-55555555---------------------------------|
E|----------11111111-55555555-33333333---------------------------------|

Solo. I've watched Adam do this dozens of times. It's right.
e|---------------------------------------------------------------------|
B|---------------------------------------------------------------------|
G|-14^12-10-9-10-9-----------------------------------------------------|
D|-----------------12/14-12-12-10-12^^\10--Repeat----------------------|
A|---------------------------------------------------------------------|
E|---------------------------------------------------------------------|

    Tremolo Picking
   VVVV         VVVV        VVVV       VVVV
e|---------------------------------------------------------------------|
B|---------------------------------------------------------------------|
G|--------9-------------9^-------5/7\5---------------------------------|
D|-2222/10------2222/10-----2222-------2222/3\2222---------------------|
A|---------------------------------------------------------------------|
E|---------------------------------------------------------------------|


****Guitar 2***** Thick and Heavy Distortion with very light palm muting
Don't exaggerate the plam mutes either.
I find it best to just rest your palm gently on the bridge.

Intro/Chorus/Verse
e|---------------------------------------------------------------------|
B|---------------------------------------------------------------------|
G|------------------1010101010101010\22222222--------------------------|
D|-1010101010101010-1010101010101010\22222222-55555555-----------------|
A|-1010101010101010-8-8-8-8-8-8-8-8-\00000000-55555555-----------------|
E|-8-8-8-8-8-8-8-8----------------------------33333333-----------------|



There ya go. One of their most popular songs
Video version is better with the synth. Bebban rocks my socks.


I would like to dedicate this tab to my Sarbear =) She's lovely, and my lovey :)


Questions, comments, compliments, or corrections go to Happyquakiduck@msn.com

Matty C <3
Comments