Shout Out Louds - Comback Chords & Tabs

 

Comback Chords & Tabs

Shout Out Louds Chords & Tabs

Version: 1 Type: Tab 0 ratings
1 star 2 stars 3 stars 4 stars 5 stars
comments

Comback Tab

   
The Shout Out Louds are from Sweden
CD: Howl Howl Gaff Gaff
I love the Shout Out Louds and I haven't seen this song tabbed anywhere... so I thought I
might try my best to tab it for you. Here goes. I'm sure there are mistakes. If you find
any changes email me at Mageball24@kc.rr.com

GUIDE:
^^ = bend
>> = slide

INTRO/CHORUS:
e----------------|
b----------------|
g-------------17-|
d-10-10-10-10----|
a----------------|
e----------------|

e-----------------------------------------------------------|
b-----------------------------------------------------------|
g-5555-99-12--10101010-1717-12--2222-99-12-10101010-1717-12-|
d-5555-99-12--10101010-1717-12--2222-99-12-10101010-1717-12-|  repeat
a-3333-77-10--8 8 8 8 -1515-10--0000-77-10-8 8 8 8 -1515-10-|
e-----------------------------------------------------------|

VERSE:

e------------------------------|
b------------------------------|
g-55555-1010101010-22222-------|
d-55555-1010101010-22222-55555-| x4
a-33333-8 8 8 8 8 -00000-55555-|
e------------------------33333-|

CHORUS:

e-----------------------------------------------------------|
b-----------------------------------------------------------|
g-5555-99-12--10101010-1717-12--2222-99-12-10101010-1717-12-|
d-5555-99-12--10101010-1717-12--2222-99-12-10101010-1717-12-|  repeat
a-3333-77-10--8 8 8 8 -1515-10--0000-77-10-8 8 8 8 -1515-10-|
e-----------------------------------------------------------|

VERSE:

e------------------------------|
b------------------------------|
g-55555-1010101010-22222-------|
d-55555-1010101010-22222-55555-| x4
a-33333-8 8 8 8 8 -00000-55555-|
e------------------------33333-|

CHORUS:
[ Tab from: http://www.guitartabs.cc/tabs/s/shout_out_louds/comback_tab.html ]
e-----------------------------------------------------------|
b-----------------------------------------------------------|
g-5555-99-12--10101010-1717-12--2222-99-12-10101010-1717-12-|
d-5555-99-12--10101010-1717-12--2222-99-12-10101010-1717-12-|
a-3333-77-10--8 8 8 8 -1515-10--0000-77-10-8 8 8 8 -1515-10-|
e-----------------------------------------------------------|


SOLO:

e-----------------------------------------------------------|
b-10-6-5-6-5-1-3-1-3-1-1-3-3-1-10-6-5-6-5-1-3-1-3-1-1-3-3-1-|
g-^^-------^-------------^-----^^-------^-------------^-----|
d-----------------------------------------------------------|
a-----------------------------------------------------------|
e-----------------------------------------------------------|

e------------------------------------------------------------|
b------------------------------------------------------------|
g------------------------------------------------------------|
d-22222222>>10-->2-22222222>>12--->2-22222222>10-22222222>12-|
a--------------7----------------10------------^^----------^^-|
e------------------------------------------------------------|

INTRO TO CHORUS:

e----------------------------|
b----------------------------|
g----------------------------|
d-12-12-12-12-12-12-12-12-12-|
a----------------------------|
e----------------------------|

CHORUS:

e-----------------------------------------------------------|
b-----------------------------------------------------------|
g-5555-99-12--10101010-1717-12--2222-99-12-10101010-1717-12-|
d-5555-99-12--10101010-1717-12--2222-99-12-10101010-1717-12-|
a-3333-77-10--8 8 8 8 -1515-10--0000-77-10-8 8 8 8 -1515-10-|
e-----------------------------------------------------------|
Comments