Shotgun Messiah - Free Chords & Tabs

 

Free Chords & Tabs

Shotgun Messiah Chords & Tabs

Version: 1 Type: Bass Tab 0 ratings
1 star 2 stars 3 stars 4 stars 5 stars
comments

Free Bass Tab

Shotgun Messiah - Free

By: Jon Craven (i_apathy@hotmail.com)
Write me if you have questions, comments, corrections, want .midi samples
of each riff, or have a tab request.

(4/4)(106 bpm)
Tuned to Eb

Shotgun Messiah - Free

By: Jon Craven (i_apathy@hotmail.com)
Write me if you have questions, comments, corrections, want .midi samples of
each riff, or have a tab request.

(4/4)(106 bpm)
Tuned to Eb

Notes:
  -This website will not allow me to submit this tab because they have never
heard of the band, and neither had I until a friend of mine requested this tab.
I normally do not include information such as this, but I want to submit the tab,
and this is the only way to do it.  Their website is www.shotgun-messiah.com
  -Played with a pick.

(R) - not actually there
R - quarter rest
\ - slide down

Intro 1: (0:00)
|------------------|
|------------------|
|------------------|
|(R)---R---R---R---|

Intro 2 (choruses/bridge/outro choruses): (0:01)
|----------------|----------------|----------------|----------------|
|----------------|----------------|----------------|----------------|
|----------------|----------------|----------------|----------------|
|8-8-8-8-8-8-8-8-|8-8-8-8-8-8-8-8-|8-8-8-8-8-8-8-8-|8-8-8-8-8-8-8-8-|

|----------------|----------------|----------------|----------------|
|----------------|----------------|----------------|----------------|
|----------------|----------------|----------------|----------------|
|6-6-6-6-6-6-6-6-|6-6-6-6-6-6-6-6-|8-8-8-8-8-8-8-8-|8-8-8-8-8-8-8-8-|
[ Tab from: http://www.guitartabs.cc/tabs/s/shotgun_messiah/free_btab.html ]
Verses: (x2)(0:19)
|----------------|----------------|----------------|----------------|
|----------------|----------------|----------------|----------------|
|----------------|----------------|----------------|----------------|
|8-8-8-8-8-8-8-8-|8-8-8-8-8-8-8-8-|6-6-6-6-6-6-6-6-|6-6-6-6-6-6-6-6-|

|----------------|----------------|----------------|----------------|
|----------------|----------------|----------------|----------------|
|----------------|----------------|----------------|----------------|
|5-5-5-5-5-5-5-5-|5-5-5-5-5-5-5-5-|3-3-3-3-3-3-3-3-|3-3-3-3-3-3-3-3-|

Pre-choruses: (0:55)
|----------------|----------------|----------------|----------------|
|----------------|----------------|----------------|----------------|
|----------------|----------------|----------------|----------------|
|8-8-8-8-8-8-8-8-|8-8-8-8-8-8-8-8-|5-5-5-5-5-5-5-5-|5-5-5-5-5-5-5-5-|

|----------------|----------------|
|----------------|----------------|
|----------------|----------------|
|0-0-0-0-0-0-0-0-|0-0-0-0-0-0-0-0-|

Chorus 1 (x2)(1:09)
Verse 2 (1:45)
Pre-chorus 2 (2:04)
Chorus 2 (x2)(2:18)

Solo: (2:54) 
|----------------|----------------|----------------|----------------|
|----------------|----------------|----------------|----------------|
|----------------|----------------|----------------|----------------|
|1-1-1-\-R---R---|6-6-6-\-R---R---|1-1-1-\-R---R---|6-6-6-\-R---R---|

|----------------|----------------|----------------|----------------|
|----------------|----------------|----------------|----------------|
|----------------|----------------|5-5-5-\-R---R---|----------------|
|1-1-1-\-R---R---|4-4-4-\-R---R---|----------------|3-3-3-3-3-3-3-3-|

Bridge (x2)(3:12)
Outro chorus pt.1 (x2)(3:31)
Outro chorus pt.2 (x4)(4:07)(fades during second repeat; gets cut off)
Comments