Shore Howard - Lord Of The Rings Fellowship Theme Chords & Tabs

 

Lord Of The Rings Fellowship Theme Chords & Tabs

Shore Howard Chords & Tabs

Version: 1 Type: Tab 3 ratings
1 star 2 stars 3 stars 4 stars 5 stars
comments

Lord Of The Rings Fellowship Theme Tab

Lord of the Rings: Fellowship of the Ring Theme by Howard Shore

-tabbed by Tom Buckler

[ Tab from: http://www.guitartabs.cc/tabs/s/shore_howard/lord_of_the_rings_fellowship_theme_tab.html ]
E|---------------------0--1--0---------0--------------------------0--1-|-0-1--3--1-3--5---
B|-------------------3---------3--1--3---3--1--0----------------3------|--------------5---
G|-----2--0--0-0--2-------2-------0------------0--2--0--0-0--2---------|------0-------6---
D|--2------------------------------------2--3------------------------3-|--------------7---
A|-----0--3-------0-------------------------------0--3-------0---------|--------------7---
E|--0---------------------1-------3------0--1--3---------------------1-|------3-------5---



Alternative "Bridge of Khazad-Dum" Ending

E|-----|--0----------0--0---
B|-----|----3--1--3-----0---
G|-----|-------0-----2------
D|-----|----------------2---
A|-----|-------------0------
E|-----|-------3------------


All the previous tabs for Lord of the Rings theme didn't have the resonance of the original 
orchestral album. Plus, what's up with attributing all classical theme songs to John Williams?


drop me a line at:

bucks2003@hotmail.com
AOL: wingman321
Comments