Shop 11 Phoenix - Im Sorry Its Ok Chords & Tabs

 

Im Sorry Its Ok Chords & Tabs

Shop 11 Phoenix Chords & Tabs

Version: 1 Type: Tab 0 ratings
1 star 2 stars 3 stars 4 stars 5 stars
comments

Im Sorry Its Ok Tab

   
Ok people, me and my freind aaron are the only ones sending in shop 11 phoenix tabs.
We need some help.
This song is easy to figure out once you find the major chords.  

the bass starts it out with 3 notes then then the guitar comes in with distortion
e-----------------------------------------------------------------
b-----------------------------------------------------------------
g---------6-6-6-6-------------------------6-6-6-6-----------------
d-3-3-3-3-6-6-6-6-6-6-6-6-8--6--8-3-3-3-3-6-6-6-6-6-6-6-6-8--6--5-
a-3-3-3-3-4-4-4-4-6-6-6-6-8--6--8-3-3-3-3-4-4-4-4-6-6-6-6-8--6--5-
e-1-1-1-1---------4-4-4-4-6--4--6-1-1-1-1---------4-4-4-4-6--4--3-
     2x                                         palm mute ^  ^  ^
intro to the verse
e----------------------------
b----------------------------  2x mute the first 3 notes
g--------------------6--6--6-
d-3xxxx3xxxx3xxx5----6--6--6-
a-3xxxx3xxxx3xxx5----4--4--4-
e-1xxxx1xxxx1xxx3------------

verse
e---------------------------------
b---------------------------------
g---------6-6-6-6----------------- 4x 
d-3-3-3-3-6-6-6-6-6-6-6-6-8-8-8-8-
a-3-3-3-3-4-4-4-4-6-6-6-6-8-8-8-8-
e-1-1-1-1---------4-4-4-4-6-6-6-6-
[ Tab from: http://www.guitartabs.cc/tabs/s/shop_11_phoenix/im_sorry_its_ok_tab.html ]
chorus
e-----------------    --------------------------------
b-----------------    --------------------------------
g-6-6-6-6--------- 3x --------------------------------
d-6-6-6-6-6--8--8-    3-3-3-3-3-3-3-3-6-6-6-6-6-6-6-6-
a-4-4-4-4-6--8--8-    3-3-3-3-3-3-3-3-6-6-6-6-6-6-6-6-
e---------4--6--6-    1-1-1-1-1-1-1-1-4-4-4-4-4-4-4-4-

then theres another intro to the verse but its the same as the verse, just palm muted

bridge
e--------------------------   ---------------------------------------------------
b--------------------------   ---------------------------------------------------
g-----------------6-6--6xx6 3x---------------------------------6-6-6-6-6-6-6-6---
d-6-6-6-6-8-8-8-8-6-6--6xx6   -6-6-6-6-6-6-6-6-8-8-8-8-8-8-8-8-6-6-6-6-6-6-6-6-3-
a-6-6-6-6-8-8-8-8-4-4--4xx6   -6-6-6-6-6-6-6-6-8-8-8-8-8-8-8-8-4-4-4-4-4-4-4-4-3-
e-4-4-4-4-6-6-6-6----------   -4-4-4-4-4-4-4-4-6-6-6-6-6-6-6-6-----------------1-
-
after the last note cut off then it goes into a bass solo which is the same as
the begining, just a different strumming pattern

the rest is a bunch of just instrumental stuff. it's the same chords that are
used through the whole song so I dont even need to write it down. You can figure
it out. feel free to correct me if i'm wrong. ok bye
Comments