Shooting Blanks - Wasted Time Chords & Tabs

 

Wasted Time Chords & Tabs

Shooting Blanks Chords & Tabs

Version: 1 Type: Tab 0 ratings
1 star 2 stars 3 stars 4 stars 5 stars
comments

Wasted Time Tab

   
-------------------------------------------------------------------------------
			WASTED TIME - Shooting Blanks
-------------------------------------------------------------------------------

Album: Wasted Time
Tabbed by: Matt Hoffman
Email: Hoffman@shootingblanks.net

Tuning: Standard - E A D G B E


INTRO:
 A           F#           D            E
 A           F#           D            E    F#  G#

VERSE:
   A
e|----------------------------------|
B|----------------------------------|
G|----------------------------------|
D|-7--------------------------------|
A|-7--------------------------------|
E|-5--------------------------------|

   D  D  D          F#          E
e|----------------------------------|
B|----------------------------------|
G|-7--7--7----------11----------9---|
D|-7--7--7--------------------------|
A|-5--5--5----------9-----------7---|
E|----------------------------------|

PRE-CHORUS:
   D           E           D           E     D
e|--------------------------------------------------|
B|--------------------------------------------------|
G|-7-----------9-----------7-----------9-----7------|
D|--------------------------------------------------|
A|-5-----------7-----------5-----------7-----5------|
E|--------------------------------------------------|

CHORUS:
   A            F#            D             E
e|---------------------------------------------|
B|---------------------------------------------|
G|----------------------------7----------------|
D|-7------------4-------------7-------------2--|
A|-7------------4-------------5-------------2--|
E|-5------------2---------------------------0--|
[ Tab from: http://www.guitartabs.cc/tabs/s/shooting_blanks/wasted_time_tab.html ]
   A            F#            D             E
e|---------------------------------------------|
B|---------------------------------------------|
G|----------------------------7-------------9--|
D|-7------------4-------------7-------------9--|
A|-7------------4-------------5-------------7--|
E|-5------------2------------------------------|

   A             F#             D            E
e|----------------------------------------------|
B|----------------------------------------------|
G|-14-----14-----11-----11------7---------------|
D|-------------------------------------------2--|
A|-12-----12-----9------9-------5------------2--|
E|-------------------------------------------0--|

   A            F#            D             E
e|---------------------------------------------|
B|---------------------------------------------|
G|----------------------------7----------------|
D|-7------------4-------------7-------------2--|
A|-7------------4-------------5-------------2--|
E|-5------------2---------------------------0--|

SOLO:
   A                  D       E        A                  D       E
e|------------------------------------------------------------------------|
B|------------------------------------------------------------------------|
G|--------------------7-7-7-7-9-7-6-----------------------7-7-7-7-9-11-13-|
D|-7--7--7--7-----------------------9--7--7--7--7-------------------------|
A|-------------9-7-9-------------------------------9-7-9------------------|
E|------------------------------------------------------------------------|

   F#                 D       E        F#                 D           E
e|---------------------------------------------------------------------------|
B|---------------------------------------------------------------------------|
G|-11~~~~~~--11-11-11-7-7-7-7-9-7-6-7--11~~~~~~--11-11-11-14-14-14-14-16~~~--|
D|---------------------------------------------------------------------------|
A|---------------------------------------------------------------------------|
E|---------------------------------------------------------------------------|

| /  slide up
| \  slide down
| h  hammer-on
| p  pull-off
| ~  vibrato
| +  harmonic
| x  Mute note
===============================================================================
Comments