Shooting Blanks - Simple Song Chords & Tabs

 

Simple Song Chords & Tabs

Shooting Blanks Chords & Tabs

Version: 1 Type: Tab 0 ratings
1 star 2 stars 3 stars 4 stars 5 stars
comments

Simple Song Tab

   
-------------------------------------------------------------------------------
			SIMPLE SONG - Shooting Blanks
-------------------------------------------------------------------------------

Album: Wasted Time
Tabbed by: Matt Hoffman
Email: Hoffman@shootingblanks.net

Tuning: Standard - E A D G B E


INTRO:
 D#           A#           G#            A#

MAIN RIFF OVER INTRO PART:
   D#
e|-------11-------11-------11-------11-------13-----|
B|-11-11----11-11----11-11----11-11----11-11----11--|
G|--------------------------------------------------|
D|--------------------------------------------------|
A|--------------------------------------------------|
E|--------------------------------------------------|

   A#
e|-------11-------11-------11-------11-------13-----|
B|-11-11----11-11----11-11----11-11----11-11----11--|
G|--------------------------------------------------|
D|--------------------------------------------------|
A|--------------------------------------------------|
E|--------------------------------------------------|

   G#
e|-------11-------11-------11-------11-------13-----|
B|-11-11----11-11----11-11----11-11----11-11----11--|
G|--------------------------------------------------|
D|--------------------------------------------------|
A|--------------------------------------------------|
E|--------------------------------------------------|

   A#
e|-13-------13-------13----13-------13-------13----11-|
B|----11-11----11-11----11----11-11----11-11----11-11-|
G|----------------------------------------------------|
D|----------------------------------------------------|
A|----------------------------------------------------|
E|----------------------------------------------------|

VERSE:
 D#           A#           C            A#

LIGHT RIFF OVER 1ST HALF OF VERSE:
   D#                A#                C                A#
e|------------------------------------------------------------------------|
B|------------------------------------------------------------------------|
G|-8~-7~----8~-7~----8~-7~----8~-7~----8~-7~----8~-7~---8~-7~----8~-7~----|
D|-------8~-------8~-------8~-------8~-------8~-------8~------8~-------8~-|
A|------------------------------------------------------------------------|
E|------------------------------------------------------------------------|

[ Tab from: http://www.guitartabs.cc/tabs/s/shooting_blanks/simple_song_tab.html ]
RIFF OVER 2ND HALF OF VERSE:
   D#            A#            C            A#
e|----------------------------------------------|
B|----------------------------------------------|
G|-8--10--12--8--10-----------------------------|
D|-----------------------------10-----------8---|
A|-6--8---10--6--8-------------10-----------8---|
E|-----------------------------8------------6---|

PRE-CHORUS:
 G#            A#

CHORUS:
 D#      A#      D#      A#
 G#              A#
 D#      A#      D#      A#
 G#              A#

RIFF AFTER VERSE 1:
   D#                              A#
e|------------------------------------------------------------------|
B|------------------------------------------------------------------|
G|-----8-------8-------8---8-7-5------------------------------------|
D|---------------8---------------8-----8-------8-------8-------8----|
A|-6-6---6-6-6-----6-6---6-----------------------8---------------8--|
E|---------------------------------6-6---6-6-6-----6-6---6-6-6------|

   C                                     A#
e|-------------------------------------------------------------------------------|
B|-------------------------------------------------------------------------------|
G|-----------------------------------------------------------------------8~~~~~--|
D|-----10-------10-------10---10-8----10-----8-------8-------8---8-7-5-7---------|
A|---------------------------------10------------------8-------------------------|
E|-8-8----8-8-8----8-8-8----8------------6-6---6-6-6-----6-6---6-----------------|

SOLO:
   D#                A#                G#                A#
e|-------------------------------------------------------------------|
B|-------------------------------------------------------------------|
G|-8--10--12--13-12--10~~~~~~--12--10--8~~~~~~~~--10--8--7~~--8--10--|
D|-------------------------------------------------------------------|
A|-6--8---10--11-10--8~~~~~~~--10--8---6~~~~~~~~--8---6--5~~--6--8---|
E|-------------------------------------------------------------------|

   D#                A#                G#                A#
e|-------------------------------------------------------------------|
B|-------------------------------------------------------------------|
G|-8--10--12--13-----15--17--19--20----20~~~~~~----------22~~~~~~----|
D|-------------------------------------------------------------------|
A|-6--8---10--11-----13--15--17--18----18~~~~~~----------20~~~~~~----|
E|-------------------------------------------------------------------|

| /  slide up
| \  slide down
| h  hammer-on
| p  pull-off
| ~  vibrato
| +  harmonic
| x  Mute note
===============================================================================
Comments