Shooting Blanks - She Loves Me Cuz I Rock Chords & Tabs

 

She Loves Me Cuz I Rock Chords & Tabs

Shooting Blanks Chords & Tabs

Version: 1 Type: Tab 0 ratings
1 star 2 stars 3 stars 4 stars 5 stars
comments

She Loves Me Cuz I Rock Tab

   
-------------------------------------------------------------------------------
			     SHE LOVES ME CUZ I ROCK - Shooting Blanks
-------------------------------------------------------------------------------

Album: Wasted Time
Tabbed by: Matt Hoffman
Email: Hoffman@shootingblanks.net

Tuning: Standard - E A D G B E


INTRO:
   C#          D#          F#          G#
e|--------------------------------------------------|
B|--------------------------------------------------|
G|-6-----------8-----------11----------13-----------|
D|--------------------------------------------------|
A|-4-----------6-----------9-----------11-----------|
E|--------------------------------------------------|

   C#          D#          F#          G#
e|-9-----------11----------14----------16-----------|
B|--------------------------------------------------|
G|-6-----------8-----------11----------13-----------|
D|--------------------------------------------------|
A|--------------------------------------------------|
E|--------------------------------------------------|


VERSE:
 C#          D#          F#          G#


RIFF OVER VERSES 2 & 3:
   C#          D#          F#          G#
e|-------------------------------------s/11-11-11-9---|
B|----------------------------------------------------|
G|-6--6--6--6--6--6--6--6--6--6--6--6-----------------|
D|----------------------------------------------------|
A|----------------------------------------------------|
E|----------------------------------------------------|


PRE-CHORUS:
   F#                      G#
e|---------------------------------------------------|
B|---------------------------------------------------|
G|-6--6--6--6--6--6--6--6--8--8--8--8--8--10--8--6---|  x 2
D|---------------------------------------------------|
A|---------------------------------------------------|
E|---------------------------------------------------|

[ Tab from: http://www.guitartabs.cc/tabs/s/shooting_blanks/she_loves_me_cuz_i_rock_tab.html ]
CHORUS:
 C#          A#          F#          G#
 C#          A#          F#          G#
 C#          A#          F#          G#
 F#                      G#


BREAK:
   A#                              F#
e|-6---6---6---6---6---6---6---6---2---2---2---2---2---2---2---2---|
B|-----------------------------------------------------------------|
G|---7---7---7---7---7---7---7---7---3---3---3---3---3---3---3---3-|
D|-----------------------------------------------------------------|
A|-----------------------------------------------------------------|
E|-----------------------------------------------------------------|

   A#                              F#       G#        F#        G#
e|-6---6---6---6---6---6---6---6-----------------------------------|
B|-----------------------------------------------------------------|
G|---7---7---7---7---7---7---7---7---------------------------------|
D|---------------------------------4--------6---------4---------6--|
A|---------------------------------4--------6---------4---------6--|
E|---------------------------------2--------4---------2---------4--|


OUTRO:
   D#          C           G#          A#
e|-11-11-11-11-11-11-11-11-11-11-11-11-13-13-13-11---|
B|---------------------------------------------------|
G|-8--8--8--8--8--8--8--8--8--8--8--8--10-10-10-8----|  x 3 THEN:
D|---------------------------------------------------|
A|---------------------------------------------------|
E|---------------------------------------------------|

   D#          C           G#          A#  G#  D#
e|-11-11-11-11-11-11-11-11-11-11-11-11--------------|
B|--------------------------------------------------|
G|-8--8--8--8--8--8--8--8--8--8--8--8--15--13--8~~~-|
D|--------------------------------------------------|
A|-------------------------------------13--11--6~~~-|
E|--------------------------------------------------|

| /  slide up
| \  slide down
| h  hammer-on
| p  pull-off
| ~  vibrato
| +  harmonic
| x  Mute note
===============================================================================
Comments