Shooting Blanks - No One Knows Chords & Tabs

 

No One Knows Chords & Tabs

Shooting Blanks Chords & Tabs

Version: 1 Type: Tab 0 ratings
1 star 2 stars 3 stars 4 stars 5 stars
comments

No One Knows Tab

   
-------------------------------------------------------------------------------
			NO ONE KNOWS - Shooting Blanks
-------------------------------------------------------------------------------

Album: Nuclear Family
Tabbed by: Matt Hoffman
Email: Hoffman@shootingblanks.net

Tuning: Standard - E A D G B E


INTRO:

e|----------------------------------------------------------------------|
B|----------------------------------------------------------------------|
G|---7---------------9------------------7---------------9---------------|
D|-----7----9----------9------7-----------7----9----------9------7------|
A|-5----------9----7--------7---7-----5----------9----7--------7---7----|
E|--------7-----7---------5------------------7-----7---------5----------|

e|-----------------------------------------------------------5----------|
B|-----------------------------------------------------------5----------|
G|---7-----------------------------------7------------9--9---6----------|
D|-----7----9----------5---------7--------7----9------9---9--7---7------|
A|-5----------9------5---5-----7---7--5----------9----7------7-7---7----|
E|--------7-----7--3------5--5---------------7-----7---------5----------|
[ Tab from: http://www.guitartabs.cc/tabs/s/shooting_blanks/no_one_knows_tab.html ]
e|--------7---------------5------------------7---------------5----------|
B|-7------7--------9------5-----------7------7--------9------5----------|
G|-7-7----8--------9-9----6-----------7-7----8--------9-9----6----------|
D|-7---7--9-9------9---9--7---7-------7---7--9-9------9---9--7---7------|
A|-5------9---9----7------7-7---7-----5------9---9----7------7-7---7----|
E|--------7-----7---------5------------------7-----7---------5----------|

e|--------7--------3---------5---------------7---------------5~~~~------|
B|-7------7--------3---------5--------7------7--------9~~----5~~~~------|
G|-7-7----8--------4---------6--------7--7---8--------9~~----6~~~~------|
D|-7---7--9-9------5---5-----7---7----7---7--9-9------9~~----7~~~~------|
A|-5------9---9----5-5---5---7-7---7--5------9---9----7~~----7~~~~------|
E|--------7-----7--3------5--5---------------7-----7---------5~~~~------|


(rest of intro)/VERSE:

   D     B     E     G     A
e|-------------------------------|
B|-------------------------------|
G|-7-----------9-----12----14----|
D|-7-----9-----9-----------------|
A|-5-----9-----7-----10----12----|
E|-------7-----------------------|


CHORUS:
D          B          G          A


POST-VERSE RIFF:
   D               B               G               A
e|-----------------------------------------------------------------|
B|-----------------------------------------------------------------|
G|-7-----9--12-11--9-----12--11-9--7-----9--12-11--9-----12--11-9--|  x 2
D|-----------------------------------------------------------------|
A|-5-----7--10-9---7-----10--9--7--5-----7--10-9---7-----10--9--7--|
E|-----------------------------------------------------------------|

| /  slide up
| \  slide down
| h  hammer-on
| p  pull-off
| ~  vibrato
| +  harmonic
| x  Mute note
===============================================================================
Comments