Shooting Blanks - New Life Chords & Tabs

 

New Life Chords & Tabs

Shooting Blanks Chords & Tabs

Version: 1 Type: Tab 0 ratings
1 star 2 stars 3 stars 4 stars 5 stars
comments

New Life Tab

   
-------------------------------------------------------------------------------
			NEW LIFE - Shooting Blanks
-------------------------------------------------------------------------------

Album: The Sticky ALbum
Tabbed by: Matt Hoffman
Email: Hoffman@shootingblanks.net

Tuning: Standard - E A D G B E


CHORUS:
   G        C        G        C        B               C       D
e|-----77-------77-------77---------------------------------------------|
B|----------------------------------------------------------------------|
G|---77--77-5577--77---77--77-55775577-4-4-4-4-4-4-4-4-5-5-5-5-7-7-7-7--|  x 2
D|-55----------------55-------------------------------------------------|
A|----------------------------------------------------------------------|
E|----------------------------------------------------------------------|

POST-CHORUS MUSIC:
   G                 C         D
e|-------------------------------------------|
B|-------------------------------------------|
G|-12----14----16----5---------7-------------|  x 2
D|-------------------------------------------|
A|-10----12----14----3---------5-------------|
E|-------------------------------------------|
[ Tab from: http://www.guitartabs.cc/tabs/s/shooting_blanks/new_life_tab.html ]
VERSE:
   G               C       D       G               C       D
e|----------------------------------------------------------------|
B|----------------------------------------------------------------|
G|-----------------5-------7-----------------------5-------7------|
D|-5---------0h2p0-5-------7-------5---------0h2p0-5-------7------|
A|-5---------------3-------5-------5---------------3-------5------|
E|-3-------------------------------5------------------------------|

   B               G               B               C       D
e|----------------------------------------------------------------|
B|----------------------------------------------------------------|
G|-4-------------------------------4---------------5-------7------|
D|-4---------------5---------------4---------------5-------7------|
A|-2---------------5---------------2---------------3-------5------|
E|-----------------3----------------------------------------------|

BREAK:
          B            B B     G        F#
e|-----------------------------------------------|
B|-----------------------------------------------|
G|-----------------------------------------------|  x 2
D|-x-x--x-9/----x-x--x-9-9/----5--------4--------|
A|-x-x--x-9/----x-x--x-9-9/----5--------4--------|
E|-x-x--x-7/----x-x--x-7-7/----3--------2--------|

then:
   C                 D
e|-8---8---8-8---8---10---10---10-10---10--------|
B|-----------------------------------------------|
G|---5---5-----5---5----7----7-------7----7------|
D|-----------------------------------------------|
A|-----------------------------------------------|
E|-----------------------------------------------|

| /  slide up
| \  slide down
| h  hammer-on
| p  pull-off
| ~  vibrato
| +  harmonic
| x  Mute note
===============================================================================
Comments