Shooting Blanks - My Fault Chords & Tabs

 

My Fault Chords & Tabs

Shooting Blanks Chords & Tabs

Version: 1 Type: Tab 0 ratings
1 star 2 stars 3 stars 4 stars 5 stars
comments

My Fault Tab

   
-------------------------------------------------------------------------------
			MY FAULT - Shooting Blanks
-------------------------------------------------------------------------------

Album: The Sticky ALbum
Tabbed by: Matt Hoffman
Email: Hoffman@shootingblanks.net

Tuning: Standard - E A D G B E


VERSE 1:
 F#          B      C#
 F#          B      C#
 D#          B      C#

POST-VERSE RIFF 1 (after 1st verse):
   F#          B           F#          B
e|----------------------------------------------------------------|
B|-6~~--3--6-6-8~~--6--4-4-6~~--3--6-6-8~~--6--4-4----------------|
G|----------------------------------------------------------------|
D|----------------------------------------------------------------|
A|----------------------------------------------------------------|
E|----------------------------------------------------------------|
[ Tab from: http://www.guitartabs.cc/tabs/s/shooting_blanks/my_fault_tab.html ]
POST-VERSE RIFF 2 (before 1st chorus):
   F#          B           F#          B    B/A#   G#
e|----------------------------------------------------------------|
B|-6~~--3--6-6-8~~--6--4-4-6~~--3--6-6-8~~------------------------|
G|-------------------------------------------8~~---6~~------------|
D|----------------------------------------------------------------|
A|----------------------------------------------------------------|
E|----------------------------------------------------------------|

CHORUS:
   G#    C#/G#     F#       F/F#       D#          C#        B
e|-----------------------------------------------------------------|
B|-----------------------------------------------------------------|
G|-5-------6-------11---11---11---11---11----11----11---11---------|
D|-6-------6-------------------------------------------------9~~~--|
A|-6-------4----------9----9----8----8-----------------------------|
E|-4-------4------------------------------11----11----9----9-------|

   B       C#
e|----------------|
B|----------------|
G|-4-------6------|
D|-4-------6------|
A|-2-------4------|
E|----------------|

| /  slide up
| \  slide down
| h  hammer-on
| p  pull-off
| ~  vibrato
| +  harmonic
| x  Mute note
===============================================================================
Comments