Shooting Blanks - Mindfuck Chords & Tabs

 

Mindfuck Chords & Tabs

Shooting Blanks Chords & Tabs

Version: 1 Type: Tab 0 ratings
1 star 2 stars 3 stars 4 stars 5 stars
comments

Mindfuck Tab

   
-------------------------------------------------------------------------------
			MINDFUCK - Shooting Blanks
-------------------------------------------------------------------------------

Album: Nuclear Family
Tabbed by: Matt Hoffman
Email: Hoffman@shootingblanks.net

Tuning: Standard - E A D G B E


VERSE:
 F#        C#        B        C#


CHORUS:
 F#        C#        D#        B


RIFF AFTER 1st CHORUS:
   F#        C#        B        C#
e|------------------------------------------|
B|------------------------------------------|
G|-11--------18--------16-------18----------|
D|------------------------------------------|
A|-9---------16--------14-------16----------|
E|------------------------------------------|

   F#        C#        B        C#
e|------------------------------------------|
B|------------------------------------------|
G|-11--------18--------16-------18--16--15--|
D|------------------------------------------|
A|-9---------16--------14-------16--14--13--|
E|------------------------------------------|


SOLO:
   F#                   C#
e|----------------------------------14~~~~~~--|
B|----------------------------13h14-----------|
G|-------------------11h13s14-----------------|
D|-----9h11s13-11h13--------------------------|
A|-9h11---------------------------------------|
E|--------------------------------------------|

   D#                                B
e|-14h15p14-13h14p13-11h13p11-9h11p9-9h11p9------------------|
B|------------------------------------------11-9-11-9--------|
G|----------------------------------------------------11-10--|
D|-----------------------------------------------------------|
A|-----------------------------------------------------------|
E|-----------------------------------------------------------|
[ Tab from: http://www.guitartabs.cc/tabs/s/shooting_blanks/mindfuck_tab.html ]
   F#                      C#
e|-------------------------9~~~~~~~~~~--------------|
B|------------------9h11p9-----------------------11-|
G|-11~~~~~~~~~~~-11---------------------------------|
D|--------------------------------------------------|
A|--------------------------------------------------|
E|--------------------------------------------------|

   D#                      B
e|-6h7p6-6h7p6-6h7p6-6h7p6-6h7s9-9s11-11s13-13-----|
B|-------------------------------------------------|
G|-------------------------------------------------|
D|-------------------------------------------------|
A|-------------------------------------------------|
E|-------------------------------------------------|

   F#                   C#
e|-14-14-15b15-14h15p14-15b15-14~~~~~~~--------|
B|---------------------------------------------|
G|---------------------------------------------|
D|---------------------------------------------|
A|---------------------------------------------|
E|---------------------------------------------|

   D#            B
e|-----------------------------------|
B|-----------------------------------|
G|-8b--6---6-------------------------|
D|-------8---8-6--------9-8---8-9s11-|
A|---------------8--8s9-----9--------|
E|-----------------------------------|

   F#                C#
e|-------14----14---------14----14-----------------|
B|-------------------------------------------------|
G|-11-11----11----11-11-11----11----11-------------|
D|-------------------------------------------------|
A|-------------------------------------------------|
E|-------------------------------------------------|

   D#                      B
E|-17-17-17-17-17-17-17-17-18-18-18-18-18-18-18-18-|
B|-------------------------------------------------|
G|-14-14-14-14-14-14-14-14-15-15-15-15-15-15-15-15-|
D|-------------------------------------------------|
A|-------------------------------------------------|
E|-------------------------------------------------|

| /  slide up
| \  slide down
| h  hammer-on
| p  pull-off
| ~  vibrato
| +  harmonic
| x  Mute note
===============================================================================
Comments