Shooting Blanks - Louder Chords & Tabs

 

Louder Chords & Tabs

Shooting Blanks Chords & Tabs

Version: 1 Type: Tab 0 ratings
1 star 2 stars 3 stars 4 stars 5 stars
comments

Louder Tab

   
-------------------------------------------------------------------------------
			LOUDER! - Shooting Blanks
-------------------------------------------------------------------------------

Album: Wasted Time
Tabbed by: Matt Hoffman
Email: Hoffman@shootingblanks.net

Tuning: Standard - E A D G B E


INTRO:
 D#    A#A#    C    G#  A#  x 2 then:

   D#    A#    C    G#  A#
e|---------------------------|
B|---------------------------|
G|-8-----10----12---8---10---|
D|---------------------------|
A|-6-----8-----10---6---8----|
E|---------------------------|


VERSE:
 D#        A#        C        G#      A# D  (x 2)


PRE-CHORUS:
 G        C        G#        A#


CHORUS:
 D#    A#A#    C    G#  A#

 D#    A#A#    C    G#  A#

 D      A#      C      G#   A#

 D      A#      C      G#   A#


SOLO:
[ Tab from: http://www.guitartabs.cc/tabs/s/shooting_blanks/louder_tab.html ]
   D#        A#        C        G#    A#
e|---------------------------------------------------|
B|-8---------10--------12-------13-12-13-10----------|
G|---------------------------------------------------|  x 2 then:
D|---------------------------------------------------|
A|-6---------8---------10-------11-10-11-8-----------|
E|---------------------------------------------------|

   D#          A#          C           G#    A#
e|-15-15-15-15-15-15-15-15-18-18-18-18-15-15-18-18---|
B|---------------------------------------------------|
G|-12-12-12-12-12-12-12-12-15-15-15-15-12-12-18-18---|
D|---------------------------------------------------|
A|---------------------------------------------------|
E|---------------------------------------------------|

   D#          A#          C           G#    A#
e|-15-15-15-15-15-15-15-15-18-18-18-18-20-20-20-20---|
B|---------------------------------------------------|
G|-12-12-12-12-12-12-12-12-15-15-15-15-17-17-17-17---|
D|---------------------------------------------------|
A|---------------------------------------------------|
E|---------------------------------------------------|

| /  slide up
| \  slide down
| h  hammer-on
| p  pull-off
| ~  vibrato
| +  harmonic
| x  Mute note
===============================================================================
Comments