Shooting Blanks - Last Song Ill Ever Write Chords & Tabs

 

Last Song Ill Ever Write Chords & Tabs

Shooting Blanks Chords & Tabs

Version: 1 Type: Tab 0 ratings
1 star 2 stars 3 stars 4 stars 5 stars
comments

Last Song Ill Ever Write Tab

   
-------------------------------------------------------------------------------
		THE LAST SONG I'LL EVER WRITE - Shooting Blanks
-------------------------------------------------------------------------------

Album: The Sticky Album
Tabbed by: Matt Hoffman
Email: Hoffman@shootingblanks.net

Tuning: Standard - E A D G B E


INTRO:
   D              G                E              G
e|---------------------------------------------------------------------|
B|---------------------------------------------------------------------|
G|-7------9------11----12--11--12--12-11-9-11-9-7-9-7-6-7-6-7----------|
D|---------------------------------------------------------------------|
A|-5------7------9-----10--9---10--10-9--7-9--7-5-7-5-4-5-4-5----------|
E|---------------------------------------------------------------------|

   D             G               E                 G
e|---------------------------------------------------------------------|
B|---------------------------------------------------------------------|
G|-7------9------11------12------14-16-14-12-14-12-11-12-11-9-11-9-7/--|
D|---------------------------------------------------------------------|
A|-5------7------9-------10------12-14-12-10-12-10-9--10-9--7-9--7-5/--|
E|---------------------------------------------------------------------|

VERSE:
   D        G        E        G
e|-----------------------------------------------------------------------|
B|-----------------------------------------------------------------------|
G|-7----------------------------------------------------------------11/--|  x 2
D|-7--------5--------2----------------------------------------------12/--|
A|-5--------5--------2--------10-10-9-9-10-10-9-9-10-10-9-9-10-9-10-12/--|
E|----------3--------0---------------------------------------------------|

PRE-CHORUS:
 G           E           B           A
 G           A           F#
 G           E           B           A
 G           A           F#
 G           A

CHORUS:
 D           G           B           G
[ Tab from: http://www.guitartabs.cc/tabs/s/shooting_blanks/last_song_ill_ever_write_tab.html ]
SOLO:
   D               G              B               G
e|-------------------------------------------------------------------------|
B|-------------666-6h7p6------666------------------------------------------|
G|-7b~-77777555---------7-777-777-7777555544445555-------------------------|
D|--------------------------------------------------445577---445577--------|
A|------------------------------------------------55-------55--------------|
E|-------------------------------------------------------------------------|

   D
e|-15b~~-r15-15-15-15-15-15-15-15-15-13-13-13------------------------------|
B|-------------------------------------------------------------------------|
G|-------------------------------------------------------------------------|
D|-------------------------------------------------------------------------|
A|-------------------------------------------------------------------------|
E|-------------------------------------------------------------------------|

   G
E|-13h15p13-13h15p13-13h15p13-13h15p13-13h15p13-13h15p13-13h15p13-13h15p13-|
B|-------------------------------------------------------------------------|
G|-------------------------------------------------------------------------|
D|-------------------------------------------------------------------------|
A|-------------------------------------------------------------------------|
E|-------------------------------------------------------------------------|

   B
e|-18b~~-r18-18-18-18-18-17-17-17-15-15-15-15------------------------------|
B|-------------------------------------------------------------------------|
G|-------------------------------------------------------------------------|
D|-------------------------------------------------------------------------|
A|-------------------------------------------------------------------------|
E|-------------------------------------------------------------------------|

   G
e|-18-18-17-17-15-15-18-15-15-17-15-15-18-15-15-15~~~----------------------|
B|-------------------------------------------------------------------------|
G|-------------------------------------------------------------------------|
D|-------------------------------------------------------------------------|
A|-------------------------------------------------------------------------|
E|-------------------------------------------------------------------------|

END OF OUTRO RIFF:
   D              G                E              G
e|---------------------------------------------------------------------|
B|---------------------------------------------------------------------|
G|-7------9------11----12-11-12-9--7------9------11----12-11-12-9------|
D|---------------------------------------------------------------------|
A|-5------7------9-----10-9--10-7--5------7------9-----10-9--10-7------|
E|---------------------------------------------------------------------|

| /  slide up
| \  slide down
| h  hammer-on
| p  pull-off
| ~  vibrato
| +  harmonic
| x  Mute note
===============================================================================
Comments