Shooting Blanks - Knock Me Dead Chords & Tabs

 

Knock Me Dead Chords & Tabs

Shooting Blanks Chords & Tabs

Version: 1 Type: Tab 0 ratings
1 star 2 stars 3 stars 4 stars 5 stars
comments

Knock Me Dead Tab

   
-------------------------------------------------------------------------------
		KNOCK ME DEAD - Shooting Blanks
-------------------------------------------------------------------------------

Album: The Sticky Album
Tabbed by: Matt Hoffman
Email: Hoffman@shootingblanks.net

Tuning: Standard - E A D G B E


INTRO:
   C#                          G
e|-----------------------------------------------------------|
B|-----------------------------------------------------------|
G|-5-5-5-5-5-5-5-5-11-11-11-11-11-11-11-11-------------------|
D|-----------------------------------------------------------|
A|-3-3-3-3-3-3-3-3-9--9--9--9--9--9--9--9--------------------|
E|-----------------------------------------------------------|

   B           E           C#          F#
e|-----------------------------------------------------------|
B|-----------------------------------------------------------|
G|-------------9-----------------------11--------------------|
D|-9-----------9-----------11----------11--------------------|
A|-9-----------7-----------11----------9---------------------|
E|-7-----------------------9---------------------------------|

   B           E           C#          F#
e|-----------------------------------------------------------|
B|-------------5-4-2-4---2-------------5-4-3-4---2-----------|
G|-4-3-4-6-4-3---------4---4-3-4-6-4-3---------4-------------|
D|-----------------------------------------------------------|
A|-----------------------------------------------------------|
E|-----------------------------------------------------------|

VERSE:
 B           E           C#          F#
 B           E           C#          F#
 B           E           C#          F#
 B           E           C#          F#
[ Tab from: http://www.guitartabs.cc/tabs/s/shooting_blanks/knock_me_dead_tab.html ]
CHORUS:
   G#            E             F#
e|-4~~-----------0~~-----------2~~-2~~---------------2~~----------|
B|-4~~-----------0~~-------0~~-2~~----2~~---------2~~---2~~-------|
G|-5~~-5~~-------1~~-1~~-------3~~-------3~~---3~~---------3~~----|
D|-6~~----6~~----2~~----2~~----4~~----------4~~-------------------|
A|-6~~-------6~~-2~~-----------4~~--------------------------------|
E|-4~~-----------0~~-----------2~~--------------------------------|

   G#            E             C#           F#
e|-4~~-----------0~~----------------------------------------------|
B|-4~~-----------0~~-------0~~------------------------------------|
G|-5~~-5~~-------1~~-1~~-------6-------------------11-------------|
D|-6~~----6~~----2~~----2~~----6------------4------11-------------|
A|-6~~-------6~~-2~~-----------4------------4------9--------------|
E|-4~~-----------0~~------------------------2---------------------|

BREAK:
 B           D#           C#           F#
 B           D#           C#           F#

SOLO:
   B           E           C#          F#
e|----------------------------------------------------------------|
B|-------------5-4-2-4---2-------------5-4-2-4-5-4-5-7------------|
G|-4-3-4-6-4-3---------4---4-3-4-6-4-3----------------------------|
D|----------------------------------------------------------------|
A|----------------------------------------------------------------|
E|----------------------------------------------------------------|

   B           E            C#              F#
e|----------------------------------------------------------------|
B|-7~~-7-7-7-7-5-4-5-4-2-4--4h5p4-5-5-4-2-4-5-4-2-4-2---2-4-------|
G|----------------------------------------------------4-----4~~~--|
D|----------------------------------------------------------------|
A|----------------------------------------------------------------|
E|----------------------------------------------------------------|

OUTRO:
 B           D#           C#           F#
 B           D#           C#           F#

| /  slide up
| \  slide down
| h  hammer-on
| p  pull-off
| ~  vibrato
| +  harmonic
| x  Mute note
===============================================================================
Comments