Shooting Blanks - Knee-deep In Shits Creek Chords & Tabs

 

Knee-deep In Shits Creek Chords & Tabs

Shooting Blanks Chords & Tabs

Version: 1 Type: Tab 0 ratings
1 star 2 stars 3 stars 4 stars 5 stars
comments

Knee-deep In Shits Creek Tab

   
-------------------------------------------------------------------------------
		KNEE-DEEP IN SHIT'S CREEK - Shooting Blanks
-------------------------------------------------------------------------------

Album: Wasted Time
Tabbed by: Matt Hoffman
Email: Hoffman@shootingblanks.net

Tuning: Standard - E A D G B E


INTRO:
e|-----------------------------------|
B|-----------------------------------|
G|-4-4-----4-4-----4---4---7-7-7-----|  x 4
D|-4-4---4-4-4---4-4-4-4---7-7-7-----|
A|-2-2---0-2-2---0-2-0-2---5-5-5-----|
E|-----------------------------------|

Then over part above:
e|-777777777777777777777---10-10-10--|
B|-----------------------------------|
G|-444444444444444444444---7--7--7---|  x 3
D|-----------------------------------|
A|-----------------------------------|
E|-----------------------------------|

Then:

e|-10-10-10-10-12-12-12-13-13-13-13-13-13-13-13--|
B|-----------------------------------------------|
G|-7--7--7--7--9--9--9--10-10-10-10-10-10-10-10--|
D|-----------------------------------------------|
A|-----------------------------------------------|
E|-----------------------------------------------|


VERSE:
B

G#      F#      G#      A#

B

G#      F#      G#      A#


PRE-CHORUS INSTRUMENTAL BREAK:
B    A    G#    G

E         F#
[ Tab from: http://www.guitartabs.cc/tabs/s/shooting_blanks/knee_deep_in_shits_creek_tab.html ]
then:
e|-----------------------------------|
B|-11-11-11-11-11-11-11-11-----------|
G|-----------------------------------|
D|-----------------------------------|
A|-9--9--9--9--9--9--9--9------------|
E|-----------------------------------|


CHORUS:
B B      E E E E

B B      E E E E

B   C#   E   F#

B B      E E E E

B B      E E E E

B   C#   E   F#


SOLO (over intro):

e|-12h9p7-12h9p7-12h9p7-12h9p7-12h9p7-12h9p7-10-10-10--|
B|-------------------------------------------10-10-10--|
G|-----------------------------------------------------|  x 3
D|-----------------------------------------------------|
A|-----------------------------------------------------|
E|-----------------------------------------------------|

then:

e|-10-10-10-10-12-12-12-13-13-13-13-13-13-13-13--|
B|-10-10-10-10-12-12-12-13-13-13-13-13-13-13-13--|
G|-----------------------------------------------|
D|-----------------------------------------------|
A|-----------------------------------------------|
E|-----------------------------------------------|

| /  slide up
| \  slide down
| h  hammer-on
| p  pull-off
| ~  vibrato
| +  harmonic
| x  Mute note
===============================================================================
Comments