Shooting Blanks - If I Was A Girl Chords & Tabs

 

If I Was A Girl Chords & Tabs

Shooting Blanks Chords & Tabs

Version: 1 Type: Tab 0 ratings
1 star 2 stars 3 stars 4 stars 5 stars
comments

If I Was A Girl Tab

   
-------------------------------------------------------------------------------
			     IF I WAS A GIRL - Shooting Blanks
-------------------------------------------------------------------------------

Album: Wasted Time
Tabbed by: Matt Hoffman
Email: Hoffman@shootingblanks.net

Tuning: Standard - E A D G B E


VERSE 1:
 A           F#           B           D
 A           F#           B           D
 F#                       B
 E                        A           G#
 F#                       B
 E


VERSE 2:
 A           F#           B           E
 A           F#           B           E
 F#                       B
 E                        A           G#
 F#                       B
 E


BREAK:
 D                        E
 A                        F#
 B                        D
 E

[ Tab from: http://www.guitartabs.cc/tabs/s/shooting_blanks/if_i_was_a_girl_tab.html ]
SOLO:
   A           F#           B            D
e|---------------------------------------10-10-10-10-9-----|
B|-10~~10-9-10--------------12~~12-11-12---------------12--|
G|-------------11~~11-10-11--------------------------------|
D|---------------------------------------------------------|
A|---------------------------------------------------------|
E|---------------------------------------------------------|

   A           F#           B            D
e|---------------------------------------------------------|
B|-10~~10-9-10--------------12~~12-12-12-15~-14~-----------|
G|-------------11~~11-10-11----------------------11~~~~----|
D|---------------------------------------------------------|
A|---------------------------------------------------------|
E|---------------------------------------------------------|


OUTRO:
   A           F#           D            E
e|---------------------------------------------------------|
B|---------------------------------------------------------|
G|-------------11------------------------9-----------------|
D|-7-----------11-----------12-----------9-----------------|
A|-7-----------9------------12-----------7-----------------|
E|-5------------------------10-----------------------------|

RIFF OVER OUTRO:
   A           F#          D           E
e|---------------------------------------------------------|
B|---------------------------------------------------------|
G|-------6--7--9--7--6-------------------6-7-6-------------|
D|-7--9-----------------9--9--9--9--9--9-------9-7---------|
A|---------------------------------------------------------|
E|---------------------------------------------------------|

| /  slide up
| \  slide down
| h  hammer-on
| p  pull-off
| ~  vibrato
| +  harmonic
| x  Mute note
===============================================================================
Comments