Shooting Blanks - Hypercritical Chords & Tabs

 

Hypercritical Chords & Tabs

Shooting Blanks Chords & Tabs

Version: 1 Type: Tab 0 ratings
1 star 2 stars 3 stars 4 stars 5 stars
comments

Hypercritical Tab

   
-------------------------------------------------------------------------------
			     HYPERCRITICAL - Shooting Blanks
-------------------------------------------------------------------------------

Album: Wasted Time
Tabbed by: Matt Hoffman
Email: Hoffman@shootingblanks.net

Tuning: Standard - E A D G B E


INTRO:
   A                               D               A
e|----------------------------------------------------------------------|
B|----------------------------------------------------------------------|
G|-9-7-6---9-7-6---9-7-6---9-7-6-9-7-7-7-7-7-7-7-7-997766--997-6-79-----|
D|-------7-------7-------7-------------------------------77-------------|
A|----------------------------------------------------------------------|
E|----------------------------------------------------------------------|

   E       D        A         E
e|-------------------------------------|
B|-------------------------------------|
G|-9-9-9-9-7-7-676----6-7-9-9-9999999--|
D|----------------7-7------------------|
A|-------------------------------------|
E|-------------------------------------|


CHORD PROGRESSION THROUGHOUT:
A         D    A

E    D    A    E


SOLO:
   A                               D               A
e|----------------------------------------------------------------------|
B|----------------------------------------------------------------------|
G|-9-7-6---9-7-6---9-7-6---9-7-6-9-7-7-7-7-7-7-7-7-997766--997-6-79-----|
D|-------7-------7-------7-------------------------------77-------------|
A|----------------------------------------------------------------------|
E|----------------------------------------------------------------------|
[ Tab from: http://www.guitartabs.cc/tabs/s/shooting_blanks/hypercritical_tab.html ]
   E          D                  A                       E
e|-------------------------------12-12-12-12-12-12-12-12-15-15-15-15-15-15-15-15--|
B|---------10-12--12-10-12-10-12-12-12-12-12-12-12-12-12-15-15-15-15-15-15-15-15--|
G|-9-11-12------------------------------------------------------------------------|
D|--------------------------------------------------------------------------------|
A|--------------------------------------------------------------------------------|
E|--------------------------------------------------------------------------------|

   A
e|-17-17-17-15-------17-17-17-17-15-------17-17-17-15-------17-17-17-17-15h17p15-----|
B|-------------17-15----------------17-15-------------17-15----------------------17--|
G|-----------------------------------------------------------------------------------|
D|-----------------------------------------------------------------------------------|
A|-----------------------------------------------------------------------------------|
E|-----------------------------------------------------------------------------------|

   D                       A
e|--------------------------------------------------|
B|-15-15-15-15-15-15-15-15-17-17-17-17-17-17-17-17--|
G|-14-14-14-14-14-14-14-14-14-14-14-14-14-14-14-14--|
D|--------------------------------------------------|
A|--------------------------------------------------|
E|--------------------------------------------------|

   E                 D
e|-17-17-17-15h17-17-b19b19b19b19-17h19p17--------|
B|-----------------------------------------19-17--|
G|------------------------------------------------|
D|------------------------------------------------|
A|------------------------------------------------|
E|------------------------------------------------|

   A                  E
e|-b19b19b19-17h19p17-----------------------------|
B|--------------------19-17-19-17-15-17-15b-------|
G|------------------------------------------16s\--|
D|------------------------------------------------|
A|------------------------------------------------|
E|------------------------------------------------|

| /  slide up
| \  slide down
| h  hammer-on
| p  pull-off
| ~  vibrato
| +  harmonic
| x  Mute note
===============================================================================
Comments