Shooting Blanks - Gone Away Chords & Tabs

 

Gone Away Chords & Tabs

Shooting Blanks Chords & Tabs

Version: 1 Type: Tab 0 ratings
1 star 2 stars 3 stars 4 stars 5 stars
comments

Gone Away Tab

   
-------------------------------------------------------------------------------
			     GONE AWAY - Shooting Blanks
-------------------------------------------------------------------------------

Album: The Sticky Album
Tabbed by: Matt Hoffman
Email: Hoffman@shootingblanks.net

Tuning: Standard - E A D G B E


INTRO:
   C                          G
e|-----------------------------------------------------------|
B|-----------------------------------------------------------|
G|----5~---5~---5~---5~---5~-----5~---5~---5~---5~---5~------|
D|-----------------------------------------------------------|
A|-3-3--3-3--3-3--3-3--3-3--3--------------------------------|
E|----------------------------3-3--3-3--3-3--3-3--3-3--3-----|

   F                          G
e|-----------------------------------------------------------|
B|----1~---1~---1~---1~---1~---------------------3-3-5-5-3---|
G|-------------------------------5~---5~--5--5-5-----------5-|
D|-----------------------------------------------------------|
A|-----------------------------------------------------------|
E|-1-1--1-1--1-1--1-1--1-1--1-3-3--3-3--3-3------------------|

VERSE:
 C            G            F            G
 C            G            F            G
[ Tab from: http://www.guitartabs.cc/tabs/s/shooting_blanks/gone_away_tab.html ]
RIFF OVER 2nd-HALF OF VERSE:
e|----------------------------------|
B|---------3-3-3-3-5-5-5-5-6-6-5-3--|
G|-5-5-5-5--------------------------|  x 4
D|----------------------------------|
A|----------------------------------|
E|----------------------------------|

CHORUS:
 C            F            A
 G            E      D
 C            F            A
 G            E      D

OUTRO:
 C            G            A            F      G

RIFF OVER LAST MEASURE OF OUTRO:
   C           G           A           F  F      G  G      F  F     C
e|----------------------------------------------------------------------|
B|----------------------------------------------------------------------|
G|-5--7--9--10-12----------14----------10-10-----12-12-----10-10----5---|
D|----------------------------------------------------------------------|
A|-3--5--7--8--10----------12----------8--8------10-10-----8--8-----3---|
E|----------------------------------------------------------------------|

| /  slide up
| \  slide down
| h  hammer-on
| p  pull-off
| ~  vibrato
| +  harmonic
| x  Mute note
===============================================================================
Comments