Shooting Blanks - Britney Spears Chords & Tabs

 

Britney Spears Chords & Tabs

Shooting Blanks Chords & Tabs

Version: 1 Type: Tab 0 ratings
1 star 2 stars 3 stars 4 stars 5 stars
comments

Britney Spears Tab

   
-------------------------------------------------------------------------------
			     BRITNEY SPEARS - Shooting Blanks
-------------------------------------------------------------------------------

Album: Nuclear Family
Tabbed by: Matt Hoffman
Email: Hoffman@shootingblanks.net

Tuning: Standard - E A D G B E


INTRO:
   A#        A# A# A#  D#        D         C
e|--------------------------------------------------|
B|-11-----------------------------------------------|
G|-----------15-14-15--8---------7---------17-------|  x 2
D|-8------------------------------------------------|
A|-----------13-12-13--6---------5---------15-------|
E|--------------------------------------------------|


Verse:
 A#                  D#        D         C

 A#                  D#        D         C

[ Tab from: http://www.guitartabs.cc/tabs/s/shooting_blanks/britney_spears_tab.html ]
PRE-CHORUS:
   A#        D#        C         D#
e|---------------------------------------------------|
B|---------------------------------------------------|
G|---------------------------------------------------| x 4
D|----8-7-8-----8-7-8-----8-7-8--10--8-7-8-----------|
A|-----------6---------------------------------------|
E|-6-------------------8-----------------------------|


CHORUS:
 A#        G         D#        D         C

 A#        G         D#        D         C


BRIDGE:
   G           A#           D#           D     C
e|-3-----------6-------------------------------------|
B|---4-----------6----------8----------------7-----5-|
G|-----4~~---------7~~--------8------------7-----5---|
D|------------------------------8~~------7-----5-----|
A|---------------------------------------------------|
E|---------------------------------------------------|

   G           A#           D#           F
e|-3-----------6-------------------------------------|
B|---4-----------7----------8------------10----------|
G|-----4~~---------7~~------8------------10----------|
D|--------------------------8------------10----------|
A|--------------------------6------------8-----------|
E|---------------------------------------------------|


| /  slide up
| \  slide down
| h  hammer-on
| p  pull-off
| ~  vibrato
| +  harmonic
| x  Mute note
===============================================================================
Comments