Shooting Blanks - Another Chance Chords & Tabs

 

Another Chance Chords & Tabs

Shooting Blanks Chords & Tabs

Version: 1 Type: Tab 0 ratings
1 star 2 stars 3 stars 4 stars 5 stars
comments

Another Chance Tab

   
-------------------------------------------------------------------------------
			     ANOTHER CHANCE - Shooting Blanks
-------------------------------------------------------------------------------

Album: Wasted Time
Tabbed by: Matt Hoffman
Email: Hoffman@shootingblanks.net

Tuning: Standard - E A D G B E


INTRO:
   A            C#         D           E
e|-----------------------------------------------------|
B|-----------------------------------------------------|
G|--------------66666-7-6--77777-9-7-6-7-6-4-6-4-2s/---|
D|-77777-9-7-9-----------------------------------------|
A|-----------------------------------------------------|
E|-----------------------------------------------------|


VERSE:
 A            C#         D           E

then:
   A            F#         E           D     E
e|-----------------------------------------------------|
B|-----------------------------------------------------|
G|-14-----------11---------9-----------7-----9---------|
D|-----------------------------------------------------|
A|-12-----------9----------7-----------5-----7---------|
E|-----------------------------------------------------|


PRE-CHORUS
   D                 E                 A                 F#
e|-10----10----10----12----12----12----5-----5-----5-----2-----2-----2-----|
B|---10----10----10----12----12----12----5-----5-----5-----2-----2-----2---|
G|-----11----11----------13----13----------6-----6-----------3-----3-------|
D|-------------------------------------------------------------------------|
A|-------------------------------------------------------------------------|
E|-------------------------------------------------------------------------|
[ Tab from: http://www.guitartabs.cc/tabs/s/shooting_blanks/another_chance_tab.html ]
   D                 E
e|-------------------------------------|
B|-------------------------------------|
G|-7-----------------9-----------------|
D|-------------------------------------|
A|-5-----------------7-----------------|
E|-------------------------------------|


CHORUS:
 A              D              E


RIFF AFTER/OVER CHORUS:
   A                             D              E
e|----------------------------------------------10-10-12~~---------|
B|-10-10h12-10-10-10-10h12-10-10-10-10h12-10-10-10-10-12~~---------|
G|-----------------------------------------------------------------|
D|-----------------------------------------------------------------|
A|-----------------------------------------------------------------|
E|-----------------------------------------------------------------|


SOLO:
   A            C#         D           E
e|-----------------------------------------------------|
B|-----------------------------------------------------|
G|--------------66666-7-6--77777-9-7-6-7-6-4-6-4-4s/---|
D|-77777-9-7-9-----------------------------------------|
A|-----------------------------------------------------|
E|-----------------------------------------------------|

   A                     G                     E                       D        E
e|------------------------------------------------------------12--------------------------------|
B|-14~~~-----14--12------14~~~-----14--12------14-14-14-14-14----14-12-14-12----12--------------|
G|-------------------14--------------------14--------------------------------14----14-12-12s/---|
D|----------------------------------------------------------------------------------------------|
A|----------------------------------------------------------------------------------------------|
E|----------------------------------------------------------------------------------------------|


| /  slide up
| \  slide down
| h  hammer-on
| p  pull-off
| ~  vibrato
| +  harmonic
| x  Mute note
===============================================================================
Comments